Relient K Tabs

Sleigh Ride

1 versions

TAB

            Song: Sleigh Ride
Artist: Relient K
Album: Let It Snow Baby, Let it Reindeer
Tuning: DROP D (DADGBE)
Tabber: aceguitarock

***TUNING IN DROP D***

Check out this song on myspace.com/relientk from their new album "Let It Snow Baby, Let 
Reindeer" coming soon this holiday season.

Key:
/ = slide
x = dead note

Intro: (After bells)
|----------------------------------------------------|
|----------------------------------------------------|
|----------------------------------------------------|
|-/9----11-11--9-7-9----7-7--6-4-6----6--------------|
|--------------------------------------7-7--4-7------|
|----------------------------------------------------|

Verse 1:
|---------------------|
|---9---------10------|
|-9------9-11------11-|
|-----11---------9----| x8
|---------------------|
|---------------------|

Chorus 1:
|---------------------------------------------------------------|
|---------------------------------------------------------------|
|---------------------------------------------------------------|
|-----------6666666666666666-88888888-11111111-6666666666666666-|
|-----------6666666666666666-88888888-11111111-6666666666666666-|
|-----------6666666666666666-88888888-11111111-6666666666666666-|

|--------------------------------------------------------------|
|--------------------------------------------------------------|
|----------66666666--------------------------------------------|
|-66666666-66666666-4444444444444444-----------------9--9--9---|
|-66666666-44444444-4444444444444444-----------------9--9--9---|
|-66666666----------4444444444444444-----------------9--9--9---|

Verse 2:
|-----------------|
|-----------------|
|---1-------2-----|
|-2-----2-4-----4-| x8
|-----4-------2---|
|-----------------|

Interlude:
|--------------------------------------------------------|
|--------------------------------------------------------|
|--------------------------------------------------------|
|-/9----11-11--9-7-9----7-7--6-4-6----6------------------|
|--------------------------------------7-7--4-7----22222-|
|--------------------------------------------------------|

|----------------------------------------------------|
|----------------------------------------------------|
|----------------------------------------------------|
|-/9----11-11--9-7-9----7-7--6-4-6----6--------------|
|--------------------------------------7-7--4-7------|
|----------------------------------------------------|

Chorus 2:
|------------------------------------------------------------------------|
|------------------------------------------------------------------------|
|------------------------------------------------------------------------|
|-88888888-111111111-6666666666666666-88888888-11111111-6666666666666666-|
|-88888888-111111111-6666666666666666-88888888-11111111-6666666666666666-|
|-88888888-111111111-6666666666666666-88888888-11111111-6666666666666666-|

|-----------------------------------------------------------------------|
|-----------------------------------------------------------------------|
|----------66666666-----------------------------------------------------|
|-66666666-66666666-4444444444444444------------------9-----------------|
|-66666666-44444444-4444444444444444-4444444444444444-9-----------------|
|-66666666----------4444444444444444-4444444444444444-9-----------------|

Outro/Verse 3:
|-xxxx-|
|-xxxx-|
|-xxxx-|
|-xxxx-|
|-xxxx-|
|-xxxx-|

|--------------------|
|--------------------|
|-----------666------|
|-999--666--666--444-| x8
|-999--666--444--444-|
|-999--666-------444-|

|--------------------|
|--------------------|
|-----------6--------|
|-9----6----6----4---|
|-9----6----4----4---|
|-9----6---------4---|

Done, now go rate it and comment it    

Added On December 16th, 2013

SHARE

Comments

blog comments powered by Disqus

ADVERTISEMENT