REM Tabs

The Flowers Of Guatemala

1 versions

TAB

            ------------------------------------------------------------------------
                The Flowers Of Guatemala - REM
------------------------------------------------------------------------
Tabbed by: Barnaby Wilde
Email:

Verse:
e|------------------------0-----------|
B|-------12---------------------------|
G|---13----13-------------------------|
D|-14--14----14---------14-------14---|
A|-------------14-12-14h---12-14h--14-|
E|------------------------------------|

Chorus:
e|-0---0-3-------0--0-----0----0---|
B|-5---1-3-------2---2-2-3-3-2--2--|
G|-7---0-0-------2-2--2-------2----|
D|-7---2-0--x3---2-----------------|
A|-0---3-2-------0-----------------|
E|-0---0-3-------0-----------------|

Middle Bridge:
e|-0---0---0---0-0---0---0---0------|
B|-0---0---0---0-0---0---0---0------|
G|-5---6---1---2-1---5---6---8------|
D|-6---7---2---2-2---6---7---9------|
A|-6---7---2---2-2---6---7---9------|
E|-4---5---0---0-0---4---5---7------|

Lead:
E-A
e|------------------------------2----|
B|-7-5-7-5-7>10-9-7------8-7----3----|
G|-----------------9-x3-----9-7-2----|
D|------------------------------0----|
A|-----------------------------------|
E|-----------------------------------|

End:
e|--0----|
B|-12----|
G|-13----|
D|-14----|
A|--0----|
E|--0----|    

Added On December 16th, 2013

SHARE

Comments

blog comments powered by Disqus

ADVERTISEMENT