Reverend Horton Heat Tabs

Psychobilly Freakout

3 versions

TAB

            Song: Psychobilly Freakout
Band: The Reverend Horton Heat
Album: Smoke 'Em If You Got 'Em
Tabbed By: Masterbasser36

Notes:
-Okay so this is not the whole song, I am working on it, but for now this is what I 
I still need to add the intro and the second part of the solo and a little more, but these 
the riffs I got down, bare with me.
-The reason I'm tabbing this is because nobody else will >_<


first part of the 'solo'
|-------------------------------------------------------------0~---|
|-------------------------------------------------------------0~---|
|------------------------------------------------------------------|
|------------------------------------------------------------------|
|---1-3~---1-5~---1-5~3/1\3~--5\0----1-5~---1-3~---1-5~3/1\3~------|
|-3------3------3------------------3------3------3-----------------|

repeated various times throughout*
|-------------------------|
|-------------------------|
|-------------------------|
|-------------------------|
|-------------------------|
|-0-3-0-3-0-3-0-3-0-3-0-3-|

ending of various parts
|-------------------|
|-------------------|
|-------------------|
|-3-7-5-3-2-5-3-2---|
|-1-5-3-1-0-3-1-0-5-|
|-----------------3-|

*sometimes the 'repeated various times throughout' changes to
|-------------------------|
|-------------------------|
|-------------------------|
|-------------------------|
|-5-8-5-8-5-8-5-8-5-8-5-8-|
|-3-6-3-6-3-6-3-6-3-6-3-6-|
or somethin'

That's all I have so far, more will be added soon!    

Added On December 16th, 2013

SHARE

Comments

blog comments powered by Disqus

VERSIONS

ADVERTISEMENT