Revolverheld Tabs

Mit Dir Chilln

5 versions

TAB

            Mit Dir Chilln Tab by Revolverheld


Revolverheld - Mit dir chillen

Die Gitarre muss etwas runter gestimmt werden!
Ich konnte das am besten an der h-Saite aus dem Lied raushören!


VERSE

       e        h       h          d
|-------------------------------3----2--^0---------------|
|------0--------3-----3----------3-----------------------|
|------0--------4-------4--------------------------------|
|----2--2----4---4-------4-------------------------------|
|--2-------2--------2------------------------------------|
|--------------------------------------------------------|

       e         h       h         h
|---------------------------------------------------------|
|------0--------3-----3-------3---------------------------|
|------0--------4-------4-------4--5--4-------------------|
|----2--2----4---4-------4--------------------------------|
|--2-------2--------2-------------------------------------|
|---------------------------------------------------------|

CHORUS

     c      am    em   d
|---------------------------------------------------------------|
|-----1-----1----------3----------------------------------------|
|-----0-----2-----0----2----------------------------------------|
|-----2-----2-----2----0----------------------------------------|
|-----3-----0-----2----0----------------------------------------|
|---------------------------------------------------------------|


BRIDGE

	    e	    g
|-------0--0----0-------3--3----3-------------------------------|
|------------0----------------3---------------------------------|
|-----0--0----0-------0--0----0---------------------------------|
|---------------------------------------------------------------|
|--2------------------------------------------------------------|
|--------------------3------------------------------------------|


später       am   c   g    

Added On December 5th, 2013

SHARE

Comments

blog comments powered by Disqus

VERSIONS

ADVERTISEMENT