Richard Hawley Tabs

Ocean

1 versions

TAB

            Ocean Tab by Richard Hawley


Richard Hawley - The Ocean
Coles Corner (Mute Records, 2005)

Chords Used:

    Bm Amaj7 C#m  E 
e|---2---0----4---0---| 
B|---3---2----5---0---| 
G|---4---1----6---1---| 
D|---4---2----6---2---| 
A|---2---0----4---2---|
E|---X---X----X---0---|


intro: Bm Amaj7

e|-----2---4---5-----2---4---2--4--------0---------------| 
B|----3--3---3---3--3--3---3----------2------------------| 
G|---4-------------4----------------1---1------1h2-1-----| 
D|-------------------------------------------------------| 
A|-------------------------------------------------------|
E|-------------------------------------------------------|


             Bm           Amaj7
You lead me down, to the ocean 
            Bm          Amaj7
So lead me down, by the ocean 
                           Bm
You know it's been a long time, 
                     Amaj7      
You always leave me tongue tied 
                        Bm
And all this time's for us 
                  Amaj7
I love you just because 

             Bm          Amaj7
You lead me down, to the ocean 
              Bm          Amaj7
The world is fine, by the ocean 

                         Bm
You know this time's for real It helps the heart to heal 
                       Amaj7
You know it breaks the seal of the talisman that harms 
            Bm                                          Amaj7
And so you look at me and need The space that means as much to me 

            Bm          Amaj7
So lead me down, to the ocean 
              Bm          Amaj7
Our world is fine, by the ocean 

C#m                                                   Bm
You know the way it is in life, it's so hard to live up to 
   C#m                                               Bm         E 
So why are you still dressed in your morning suit I assume, I assume 

                Bm          Amaj7
You'll lead me down, to the ocean 
                Bm          Amaj7
Don't leave me down, by the ocean, the ocean. 


e|--------------------------------------| 
B|--------------------------------------| 
G|----9-7-6----6--------9-7-6-----6-----| 
D|---------7----7------------6-----6----| 
A|---7-----------------7-------------9--|
E|--------------------------------------|

               Bm                   Amaj7
Here comes the wave, here comes the wave 
                Bm               Amaj7
Here comes the wave, down by the ocean 

The ocean (repeat to fade)    

Added On December 5th, 2013

SHARE

Comments

blog comments powered by Disqus

ADVERTISEMENT