Richard Thompson Tabs

The Boys Of Mutton Street

1 versions

TAB

            Tuning: EGDGBE (Only the second string a note lower)

Capo 5th fret


Tabbed by Arjan A. Nijk, Leiden University, the Netherlands


Intro & Verse:

e-5/7---5---3-----0---------------5/7---5---3-----0-------------|
b---------------------3---3-------------------------------------|
g-5/7---5---4-----0---------------5/7---5---4-----0-------------|
D-----0-------0-------0-------0-------0-------0-------2-------0-|
G-0-------0-------0-------0-------0-------0---------------------|
E-------------------------------------------------0-------0-----|


-5/7---5---3-----0-----------3---------------------------------|
---------------------3---3h5-----------------------------------|
-5/7---5---4-----0---------------2h4---4p2---0---2h4-----------| REP.
-----0-------0-------0-------0-------0-------0-------0-------0-|
-0-------0-------0-------0-------0-------0-------0-------0-----|
---------------------------------------------------------------|


Chorus:

---------------------------------------------------------------|
---------------------3---3-----5---------------3---------------|
-2h4---4p2---0---2h4---------------2-----2---------0-----0-----|
-----0-------0-------0-------0-------0-------0-------0-------0-|
-0-------0-------0-------0-------0-------0-------0-------0-----|
---------------------------------------------------------------|


---------------------------------------------------------------|
---------------------3---3-------5-----------------------------|
-2h4---4p2---0---2h4---------------------2-------0-------------|
-----0-------0-------0-------0-------0-------0-------0-------0-|
-0-------0-------0-------0-------0-------0-------0-------0-----|
---------------------------------------------------------------|


---------------------------------------------------------------|
---------------------3---3-----5---------------3---------------|
-2h4---4p2---0---2h4---------------2-----2---------0-----0-----|
-----0-------0-------0-------0-------0-------0-------0-------0-|
-0-------0-------0-------0-------0-------0-------0-------0-----|
---------------------------------------------------------------|


---------------------------------0-------2-------/3----3---3---|
---------------------3---3-------1-------3-------/3----3---3---|
-2h4---4p2---0---2h4-------------0-------2-------/4----4---4---|
-----0-------0-------0-------0-------2-------0-------0-------0-|
-0-------0-------0-------0-------0-------0-------0-------0-----|
---------------------------------------------------------------|


-3---------------3-----------------------------|
-3---------------3-----------------------------|
-4---------------4-----------------------------| And back to verse.
-----0-------0-------0-------0-------0-------0-|
-0-------0-------0-------0-------0-------0-----|
-----------------------------------------------|    

Added On December 16th, 2013

SHARE

Comments

blog comments powered by Disqus

ADVERTISEMENT