Right Away Great Captain Tabs

Captain Im Fine And I Thank You For Everything

1 versions

TAB

            this is the final track on right away, great captain!'s debut album "the bitter end"
and it goes as such

drop d tuning

verse
e|---------------------------------------------------------|
b|---------------------------------------------------------|
g|---------------------------------------------------------|
d|------------0-0---0-0---0-0------------0-0----0-0---0-0--|
a|---------------------------------------------------------|
e|--12-11-7-5-----5-----5------12-11-7-0------0-----0------|

chorus
e|---------------------------------------------------------------|
b|---------------------------------------------------------------|
g|---------------------------------------------------------------|
d|---------0------0------0------0------0------0------0------0----|
a|-----------0------0------0------0------0------0------0------0--|
e|--0h5h7------7------5------5------0------0------0------0-------|

everything is repeated as needed

the open notes on the d string during the verse are hard to hear, but i tend to add them 
make the song sound more full.
anywho enjoy
feed back is much appreciated.    

Added On December 16th, 2013

SHARE

Comments

blog comments powered by Disqus

ADVERTISEMENT