Rilo Kiley Tabs

Go Ahead

2 versions

TAB

            Go Ahead Tab by Rilo Kiley



  C
e---------------------------------------------|
B----1----------------------------------------|
G--------0---0--------------------------------|
D------2---2----------------------------------|
A--3------------------------------------------|
E---------------------------------------------|


(Go ahead...)
Dm
e----1----------------------------------|
B--------3---3--------------------------|
G------2---2----------------------------|
D--0------------------------------------|
A---------------------------------------|
E---------------------------------------|

e--3-1-0---------------------|
B--------0h2-----------------|
G----------------------------|

(If you want better things...)

C#  D#  C  C#


tabbed by jason moon    

Added On December 5th, 2013

SHARE

Comments

blog comments powered by Disqus

VERSIONS

ADVERTISEMENT