Rilo Kiley Tabs

The Frug

3 versions

TAB

            The Frug Tab by Rilo Kiley


-------------------------------------------------------------------------------
			     The Frug - Rilo Kiley
-------------------------------------------------------------------------------

Tabbed by: Jackalneo
Email: jackalnes@hotmail.com
Site: Http://flash.silius.net

Tuning:

Main Riff
e|-----------------------------|
B|-----------------------------|
G|-----------------------------|
D|--7--7---7-------------------|    Repeat...
A|--4--4/5-4--7--7-7---7-7-7---|
E|------------5--4-4/5-5-5-5---|

Chorus
e|----------------------------------|
B|--7-7--7-9--10--10-10--10-10-10---|
G|--7-7--7-9--9---9--9---9--9--9----|
D|--7-7--7-9--7---7--7---7--7--7----|
A|----------------------------------|
E|----------------------------------|

Well, there is probably a little bit that I missed, but feel free
to figure it out on your own!  Awesome song by an awesome band.    

Added On December 5th, 2013

SHARE

Comments

blog comments powered by Disqus

VERSIONS

ADVERTISEMENT