Rivermaya Tabs

A Love To Share

4 versions

TAB

            A Love To Share Tab by Rivermaya



Artist: Rivermaya
Song: A Love To Share
Tabbed By: Gadasher (GCF_14)
Email: feander_14@yahoo.com
Tuning: EADGBE

             MGA KAIBIGAN, ANG TABS NA ITO AY MEDYO MAGKAIBA PERO
             AYOS NAMAN PAKINGAN, TRY NYO LANG TO.BINASE KO ANG 
             TABS NA ITO NANG TUMUGTOG ANG RIVERMAYA SA MYX,
             (MYX LIVE)................
             

Intro:

E|---------------------------------------------------|
B|---------------------------------------------------|
G|--9999999999--9999999999--999999999999999----------|
D|--9999999999--9999999999--999999999999999----------|
A|--7777777777--xxxxxxxxxx--xxxxxxxxxxxxxxx----------|
E|--------------9999999999--777777777777777----------|

Verse:

E|--------------------------------------------------------------------------|
B|--------------------------------------------------------------------------|
G|------------------9--9--------9-------------------9------9------------9---|
D|------------------9--9--------9-------------------9------9------------9---|
A|------------------7--x--------x-------------------7------x------------x---|
E|---------------------9--------7--------------------------9------------7---|
  If I could take over.....were in.  I wanna reach out....every.......being.

E|--------------------------------------------------------------------------|
B|--------------------------------------------------------------------------|
G|--------------------9----9-------9-------------------------9-----9-----9--|
D|--------------------9----9-------9-------------------------9-----9-----9--|
A|--------------------7----x-------x-------------------------7-----x-----x--|
E|-------------------------9-------7-------------------------------9-----7--|
  I'd take all the sorrows......goodbye.  I'd shed all the tears..ever..cry.

Chorus:

   G#m     C#m     B     G#m    C#m       B      G#m       C#m    B     G#m
E|--------------------------------------------------------------------------|
B|--------------------------------------------------------------------------|
G|---------6--------------------6--------------------------6----------------|
D|--6------6-------9-----6------6---------9-------6--------6------9------6--|
A|--6------4-------9-----6------4---------9-------6--------4------9------6--|
E|--4--------------7-----4----------------7-------4---------------7------4--|
  Nobody cares for me.  Nobody hear needs me.  A love to share..nobody dare.

   G#m    C#m       B
E|----------------------------------|
B|----------------------------------|
G|---------6------------------------|
D|--6------6--------6---------------|
A|--6------4--------6---------------|
E|--4---------------7---------------|
  Nobody cares for me.  

Verse:

E|----------------------------------------------------------|
B|----------------------------------------------------------|
G|----------9-9-----9-------------9-----------9---------9---|
D|----------9-9-----9-------------9-----------9---------9---|
A|----------7-x-----x-------------7-----------x---------x---|
E|------------9-----7-------------------------9---------7---|
  I'll....ocean...pain.  I......shelter...countless...shame

E|----------------------------------------------------------|
B|----------------------------------------------------------|
G|----------9--9--------9-----------9----9-----9------------|
D|----------9--9--------9-----------9----9-----9------------|
A|----------7--x--------x-----------7----x-----x------------|
E|-------------9--------7----------------9-----7------------|
  Erase...conflict....divide. I...give...me...die...........

                         (REPEAT CHORUS)



....................THAT'S ALL FOR A LOVE TO SHARE..........................    

Added On December 5th, 2013

SHARE

Comments

blog comments powered by Disqus

VERSIONS

ADVERTISEMENT