Rivulets Tabs

If It Is

1 versions

TAB

            capo 1

main

E-----------------------------------------------|
B-----------------------------------------------|
G------------7-----------------6----------------|
D---------0-----0-----------0-----0-------------|
A------5-----------5-----4-----------4----------|
E---0-----------------0-----------------0-------|

at one point he just strums the chords

E---x-----x------|
B---0-----0------|
G---7-----6------|
D---0-----0------|
A---5-----4------|
E---0-----0------|

outro

E------------------------------------------------------------------------------|
B------------------------------------------------------------------------------|
G------------4-----------------5-----------------4-----------------3-----------|
D---------0-----0-----------0-----0-----------0-----0-----------0-----0--------|
A------2-----------2-----3-----------3-----2-----------2-----1-----------1-----|
E---0-----------------0-----------------0-----------------0-----------------0--|

E------------------------------------------------------------------------------|
B------------------------------------------------------------------------------|
G------------4-----------------4-----------------4-----------------4-----------|
D---------0-----0-----------0-----0-----------0-----0-----------0-----0--------|
A------2-----------2-----2-----------2-----2-----------2-----2-----------2-----|
E---0-----------------0-----------------0-----------------0-----------------0--|


once if it is it wont ask which you speak
they'll stop listening
and if it is it wont ask which you speak
they'll no longer have a part of you

please, please stop bringing down
please, please stop bringing down    

Added On December 16th, 2013

SHARE

Comments

blog comments powered by Disqus

ADVERTISEMENT