Rivulets Tabs

Swans

1 versions

TAB

            this song is filled with a lot of dark and ominous chords
 fairly standard rivulets i guess. enjoy


 tune down half step

 intro - pops up between verses and at end too

E-----------------------------------------------------------|
B-----------------------------------------------------------|
G---------0--------0--------------0--------0----------------|
D------4--------4--------4-----4--------4--------4----------|
A---3--------2--------0-----3--------0--------2-------------|
E-----------------------------------------------------------|

 main - i've incorporated the baseline into the guitar part

E-----------------------------------------------------------|
B-----------------------------------------------------------|
G---------0--------0--------------0--------0----------------|
D------4--------4--------4-----4--------4--------4----------|
A---2--------2--------------3--------3--------3-------------|
E---------------------3-------------------------------------|


E-----------------------------------------------------------|
B-----------------------------------------------------------|
G---------0--------0--------------0--------0----------------|
D------4--------4--------4-----4--------4--------4----------|
A---2--------2--------5-----3--------3--------3-------------|
E-----------------------------------------------------------|


 bridge - play these chords

    em9    Gmaj7
E----x-------x------|
B----0-------0------|
G----0-------0------|
D----4-------4------|
A----2-------3------|
E----0-------3------|

Swans float above my lake
You were more than I could take
Swans float above my lake
You were more than I could take

Have you ever fell
Have you ever fell
Have you ever fell
Into an armageddon of love?
Into an armageddon of love?

Swans float above my lake
You were more than I could take
Swans float above my lake
You were more than I could take

Have you ever
Have you ever fell
Have you ever fell
Into an armageddon of love?
Into an armageddon of love?

'Cause everybody knows
You've been gone away
Ever since the time
That you refused to stay
And everybody knows
You've been gone for days    

Added On December 16th, 2013

SHARE

Comments

blog comments powered by Disqus

ADVERTISEMENT