Rizzle Kicks Tabs

Down With The Trumpets Acoustic

1 versions

TAB

            hey this is my version of down with the trumpets

this is a simple song and really easy to play hope u enjoy it :)
here goes

standard tuning (E A D G B E)

intro/chorus

--5-----5-----5--0-----0-----0--------|
--5--x--5h6p5-5--5--x--5/6\5-5--------|
--5--x--5-----5--7--x--7-----7--------|
--7--x--7-----7--6--x--6-----6--------|
--7--x--------7--7--x--7-----7--------|
--5-----------5--x--------------------|

verses
-----5-----5-----5-----5-----0-----0-----0-----0---|
--x--5--x--5--x--5--x--5--x--5--x--5--x--5--x--5---|
--x--5--x--5--x--5--x--5--x--7--x--7--x--7--x--7---|
--x--7--x--7--x--7--x--7--x--6--x--6--x--8--x--8---|
--x--7--x--7--x--7--x--7--x--7--x--7--x--7--x--7---|
---------------------------------------------------|

that it hope it helps any problems let us know    

Added On December 16th, 2013

SHARE

Comments

blog comments powered by Disqus

ADVERTISEMENT