Rob Dougan Tabs

Nothing At All

1 versions

TAB

            E A D G B E


-----------------------------------------------------------------|
--11-----11-----9-------9----------------------------------------|
---------------------10---------11-------11------10------10------|
------8------8-----11------8--------8--------11------11------8---|
--------------------------------------8--------------------------|
-----------------------------------------------------------------|



---------------------------------------------------------|
---------------------------------------------------------|
---8-----8------6-----6-----5-----5-----3------3--3------|
------4-----4-----88-----4-----1-----1-----1-------------|
---------------------------------------------------------|
---------------------------------------------------------|



----------------------------------------------------------------|
--11-----11-----9-------9---------------------------------------|
-------------------------------11-------11------10------10------|
------8------8-----11------8-------8--------8-------8------8----|
----------------------------------------------------------------|
----------------------------------------------------------------|



----------------------------------------------------------|
----------------------------------------------------------|
--8-----8------6-----6-----5-----5-----3------3-----------|
----4-----4------4-----------------------1-------1--------|
------------------------6-----6----6----------------------|
----------------------------------------------------------|    

Added On December 16th, 2013

SHARE

Comments

blog comments powered by Disqus

ADVERTISEMENT