Rob Zombie Tabs

Superbeast

5 versions

TAB

            Superbeast Tab by Rob Zombie


Artist: Rob Zombie
Song: Superbeast
Tabbed By: BlueInferno_9890@hotmail.com

For tunning, just imagine Drop D tuning and take it a whole step
lower (C, G, C, F, A, D).I have no idea what pedal Riggs uses for
this intro. Sounds like vibrato.

BPM=150

Intro-

Outer space tones:

D|------------------------------------------------------------------|
A|------------------------------------------------------------------|
F|------------------------------------------------------------------|
C|--8-8-8-8-8-8-8-8-8/7-7-7-7-7-7-7-3-3-3-3-3-3-3-3-3/4-4-4-44-6-6/-|
G|------------------------------------------------------------------|
C|------------------------------------------------------------------|

D|------------------------------------------------------------------|
A|------------------------------------------------------------------|
F|------------------------------------------------------------------|
C|--8-8-8-8-8-8-8-8-8/7-7-7-7-7-7-7-3-3-3-3-3-3-3-3-3/2-2-2-2-2-----|
G|------------------------------------------------------------------|
C|------------------------------------------------------------------|

Here's the next part. This comes after the chorus too:

D|-----------------------------------------------------------|
A|-----------------------------------------------------------|
F|-----------------------------------------------------------|
C|--8-8-8-8-8-8-8-8/7-7-7-7-7-7/3-3-3-3-3-3-3-3/4-4-4-4/6-6/-|
G|--8-8-8-8-8-8-8 8/7-7-7-7-7-7/3-3-3-3-3-3-3-3/4-4-4-4/6-6/-|
C|--8-8-8-8-8-8-8-8/7-7-7-7-7-7/3-3-3-3-3-3-3-3/4-4-4-4/6-6/-|

D|-----------------------------------------------------------|
A|-----------------------------------------------------------|
F|-----------------------------------------------------------|
C|--8-8-8-8-8-8-8-8/7-7-7-7-7-7/3-3-3-3-3-3-3-3/2-2-2-2-2-2--|
G|--8-8-8-8-8-8-8-8/7-7-7-7-7-7/3-3-3-3-3-3-3-3/2-2-2-2-2-2--|
C|--8-8-8-8-8-8-8-8/7-7-7-7-7-7/3-3-3-3-3-3-3-3/2-2-2-2-2-2--|

After that comes this part. This is also the chorus:
 repeat 1x
D|------------------------------------------------------------|
A|------------------------------------------------------------|
F|------------------------------------------------------------|
C|--1-1-1/7~7/1-1-1-1-1-1/4~4/1-1-1-1-1-1/7~7/1-1-1-1-1-1/2~2-|
G|--1-1-1/7~7/1-1-1-1-1-1/4~4/1-1-1-1-1-1/7~7/1-1-1-1-1-1/2~2-|
C|--1-1-1/7~7/1-1-1-1-1-1/4~4/1-1-1-1-1-1/7~7/1-1-1-1-1-1/2~2-|
p.m.-----     p.m.-------     p.m.-------     p.m.------------|

Verse:

D|------------------------------------------------------------|
A|------------------------------------------------------------|
F|------------------------------------------------------------|
C|--1-1-1-1-1-1-1-1-1-1-1-1-1-1-1-1-1-1-1-1-1-1-1-1-1-1-1-1-1-|
G|--1-1-1-1-1-1-1-1-1-1-1-1-1-1-1-1-1-1-1-1-1-1-1-1-1-1-1-1-1-|
C|--1-1-1-1-1-1-1-1-1-1-1-1-1-1-1-1-1-1-1-1-1-1-1-1-1-1-1-1-1-|

D|-------------------------------------------|
A|-------------------------------------------|
F|----------2-2-1-1------------2-2-1-1-4/5/2-|
C|--1-1-4-4---------2-2-1-1-4-4--------------|
G|-------------------------------------------|
C|-------------------------------------------|    

Added On December 5th, 2013

SHARE

Comments

blog comments powered by Disqus

VERSIONS

ADVERTISEMENT