Runaways Tabs

Cherry Bomb

3 versions

TAB

            Cherry Bomb Tab by Runaways


Cherry Bomb - The Runaways

Intro/1st Verse’s
e|--------|
b|--------|
g|-----7--|
d|--9--7--|
a|--9--5--|
E|--7-----|
Pm  .

1st Chorus’s
e|--------------|
b|--------------|
g|-----------9--|
d|--4--7--9--9--|
a|--4--7--9--7--|
E|--2--5--7-----|
Pm        .

2nd Verse’s
e|---------|
b|---------|
g|------9--|
d|--11--9--|
a|--11--7--|
E|---9-----|
Pm   .

2nd Chorus’s
e|----------------|
b|----------------|
g|------------11--|
d|--6--9--11--11--|
a|--6--9--11---9--|
E|--4--7---9------|
Pm         .

Outro
e|----------|
b|----------|
g|------11--|
d|--11--11--|
a|--11---9--|
E|---9------|
Pm   .    

Added On December 5th, 2013

SHARE

Comments

blog comments powered by Disqus

VERSIONS

ADVERTISEMENT