Rush Tabs

Yyz

6 versions

TAB

            Time Signature At Intro. is 5/4

e---------------------------------|
b---------------------------------|
g---------------------------------|
d---------------------------------|
a-3----3--3--3----3--3--3--3------|
e----2----------2-------------2-2-|

e-------------------------------------------|
b-------------------1-4-2---1----1----------|
g-------------0-2-4-------3---------3--0----|
d-------1-2-3-----------------------------4-|
a-2-3-4-------------------------------------|
e-------------------------------------------|

e------------------------------|
b-3-3-1-3-1-0------------------|
g-------------3-2-0------------|
d-------------------4----------|
a------------------------------|
e------------------------------|

4/4 Time

e-------------------------------------------|
b-------------------------------------------|
g-------------------------------------------|
d-7-6-4-7-6-4-----------7-6-4-7-6-4---------|
a--------------7--4-----------------7-----4-|
e--------------------------------------7----|

e-------------------------------------------|
b-------------------------------------------|
g-------------------------------------------|
d-9-8-6-9-8-6-----------9-8-6-9-8-6---------|
a--------------9--6-----------------9-----6-|
e--------------------------------------9----|

e------------------------------------------------------------------------|
b-----------------------------10--12---10--------------------------------|
g-----9--11---------------11----------------------9--11------------------|
d-12------------------12----------------------12---------------------9---|
a------------12------------------------------------------12-12-12-12-----|
e------------------------------------------------------------------------|

e---------------------|
b---------10--12---10-|
g-----11--------------|
d-12------------------|
a---------------------|
e---------------------|

e-------------------------------------------------------|
b--------------------8--------------------------8---8---|
g-----7--9--9p7----9-------------7--9--9p7----9---9---9-|
d-10------------10-----------10------------10-----------|
a-------------------------------------------------------|
e-------------------------------------------------------|

e-7--7-x--7--7--x-7-7-|
b-8--8-x--8--8--x-8-8-|
g-9--9-x--9--9--x-9-9-|
d-9--9-x--9--9--x-9-9-|
a---------------------|
e---------------------|

e-8---8--x--8---8---x-8--8--8--|
b-9---9--x--9---9---x-9--9--9--|
g-10--10-x--10--10--x-10-10-10-|
d-10--10-x--10--10--x-10-10-10-|
a------------------------------|
e------------------------------|    

Added On December 16th, 2013

SHARE

Comments

blog comments powered by Disqus

VERSIONS

ADVERTISEMENT