Rx Bandits Tabs

Progress

1 versions

TAB

            *****************************************
* Song   : Progress			*
* Artist : Rx Bandits			*
* Album  : Progress			*
* Year   : 2001				*
*****************************************
    Tabbed by: Bill Streckfus

Tempo = 205 bpm

Intro / Verse:
------------------------------------------------------------------------------

Guitar 1:

E|------------------|------------------|------------------|------------------|
B|------------------|------------------|------------------|------------------|
G|-7----------------|------------------|------------------|------------------|
D|-7----------------|------------------|------------------|------------------|
A|------------------|------------------|------------------|------------------|
E|------------------|------------------|------------------|------------------|
   (feedback)

E|-----1---x---1----|-x---1---x-x-0----|-x---1---x---1----|-x---5-----0-0-0--|
B|-----3---x---3----|-x---1---x-x-1----|-x---2---x---2----|-x---6-----1-1-1--|
G|-----2---x---2----|-x---2---x-x-0----|-x---3---x---3----|-x---5-----0-0-0--|
D|------------------|------------------|------------------|------------------|
A|------------------|------------------|------------------|------------------|
E|------------------|------------------|------------------|------------------|

E|-x---5---x---5----|-x---1---x-x-0----|-x---5---x-x-5----|------------------|
B|-x---6---x---6----|-x---1---x-x-1----|-x---6---x-x-6----|------------------|
G|-x---7---x---7----|-x---2---x-x-0----|-x---7---x-x-7----|------------------|
D|------------------|------------------|------------------|-------8-8-8-8-8--|
A|------------------|------------------|------------------|-6-6-6-6-6-6-6-6--|
E|------------------|------------------|------------------|------------------|

E|------------------|
B|-----8-8-8-8-8-8--|
G|-8-8-8-8-8-8-8-8--|
D|-8-8-8-8-8-8-8-8--|
A|-6-6-6-6-6-6-6-6--|
E|------------------|

E|-----1---x---1----|-x---1---x-x-0----|-x---1---x---1----|-x---5-----0-0-0--|
B|-----3---x---3----|-x---1---x-x-1----|-x---2---x---2----|-x---6-----1-1-1--|
G|-----2---x---2----|-x---2---x-x-0----|-x---3---x---3----|-x---5-----0-0-0--|
D|------------------|------------------|------------------|------------------|
A|------------------|------------------|------------------|------------------|
E|------------------|------------------|------------------|------------------|

E|-x---5---x---5----|-x---1---x-x-0----|-x---5---x-x-5----|-x---0------------|
B|-x---6---x---6----|-x---1---x-x-1----|-x---6---x-x-6----|-x---1------------|
G|-x---7---x---7----|-x---2---x-x-0----|-x---7---x-x-7----|-x---0------------|
D|------------------|------------------|------------------|------------------|
A|------------------|------------------|------------------|------------------|
E|------------------|------------------|------------------|------------------|


Pre-Chorus:
------------------------------------------------------------------------------

E|-x-x-x-x-1--------|-----x-1----------|-x-x-x-x-1--------|-----x-1----------|
B|-x-x-x-x-3--------|-----x-3----------|-x-x-x-x-3--------|-----x-3----------|
G|-x-x-x-x-2--------|-----x-2----------|-x-x-x-x-2--------|-----x-2----------|
D|------------------|------------------|------------------|------------------| 
A|------------------|------------------|------------------|------------------|
E|------------------|------------------|------------------|------------------|

E|-x-x-x-x-1--------|-----x-1----------|-x-x-x-x-1--------|-----x------------|
B|-x-x-x-x-3--------|-----x-3----------|-x-x-x-x-3--------|-----x------------|
G|-x-x-x-x-2--------|-----x-2----------|-x-x-x-x-2--------|-----x------------|
D|------------------|------------------|------------------|------------------| 
A|------------------|------------------|------------------|------------------|
E|------------------|------------------|------------------|------------------|

Guitars 1 & 2 (distorted):

E|------------------|------------------|------------------|------------------|
B|------------------|---------6-----9/-|------------------|-----6---------9--|
G|-7-7-7---7---7-7--|-------5-----7----|-7-7-7---7---7-7--|-------5-----7----|
D|------------------|-----3-----5------|------------------|---------3-5------|
A|-5-5-5---5---5-5--|------------------|-5-5-5---5---5-5--|------------------|
E|------------------|------------------|------------------|------------------|

E|------------------|------------------|------------------|------------------|
B|------------------|---------6-----9/-|------------------|------------------|
G|-7---7---7-7-7-7--|-------5-----7----|-7-7-7---7/-------|------------------|
D|------------------|-----3-----5------|------------------|-----3-------5----|
A|-5---5---5-5-5-5--|------------------|-5-5-5---5/-------|-----3-------5----|
E|------------------|------------------|------------------|---1-1---3-3-3----|
                                                            p.m.    p.m.

E|------------------|-5-5-5/-----------|
B|------------------|-6-6-6/-----------|
G|------------------|-7-7-7/-----------|
D|------------------|-7-7-7/-----------|
A|------------------|-5-5-5/-----------|
E|------------------|------------------|

Verse 2:
------------------------------------------------------------------------------

E|-----1---x---1----|-x---1---x-x-1----|-x---1---x---1----|-x---1---x---1----|
B|-----3---x---3----|-x---1---x-x-1----|-x---2---x---2----|-x---1---x---1----|
G|-----2---x---2----|-x---2---x-x-2----|-x---3---x---3----|-x---2---x---2----|
D|------------------|------------------|------------------|------------------|
A|------------------|------------------|------------------|------------------|
E|------------------|------------------|------------------|------------------|

E|-----1---x---1----|-x---5---x-x-5----|-x---1---x---1----|------------------|
B|-----3---x---3----|-x---6---x-x-6----|-x---3---x---3----|------------------|
G|-----2---x---2----|-x---5---x-x-5----|-x---2---x---2----|------------------|
D|------------------|------------------|------------------|-------8-8-8-8-8--|
A|------------------|------------------|------------------|-6-6-6-6-6-6-6-6--|
E|------------------|------------------|------------------|------------------|

E|------------------|
B|-----8-8-8-8-8-8--|
G|-8-8-8-8-8-8-8-8--|
D|-8-8-8-8-8-8-8-8--|
A|-6-6-6-6-6-6-6-6--|
E|------------------|

E|-----1---x---1----|-x---5---x---5----|-x---1---x---1----|-x---1-----0-0-0--|
B|-----3---x---3----|-x---6---x---6----|-x---2---x---2----|-x---1-----1-1-1--|
G|-----2---x---2----|-x---5---x---5----|-x---3---x---3----|-x---2-----0-0-0--|
D|------------------|------------------|------------------|------------------|
A|------------------|------------------|------------------|------------------|
E|------------------|------------------|------------------|------------------|

E|-x---1---x---1----|-1---1---1---1----|-x--10---x--10----|-x---x---x---x----|
B|-x---3---x---3----|-1---1---1---3----|-x--10---x--10----|-x---x---x---x----|
G|-x---2---x---2----|-2---2---2---2----|-x--10---x--10----|-x---x---x---x----|
D|------------------|------------------|------------------|------------------|
A|------------------|------------------|------------------|------------------|
E|------------------|------------------|------------------|------------------|

Pre-Chorus:
------------------------------------------------------------------------------

E|-x-x-x-x-1--------|-----x-1----------|-x-x-x-x-1--------|-----x-1----------|
B|-x-x-x-x-3--------|-----x-3----------|-x-x-x-x-3--------|-----x-3----------|
G|-x-x-x-x-2--------|-----x-2----------|-x-x-x-x-2--------|-----x-2----------|
D|------------------|------------------|------------------|------------------| 
A|------------------|------------------|------------------|------------------|
E|------------------|------------------|------------------|------------------|

E|-x-x-x-x-1--------|-----x-1----------|-x-x-x-x-1--------|-----x------------|
B|-x-x-x-x-3--------|-----x-3----------|-x-x-x-x-3--------|-----x------------|
G|-x-x-x-x-2--------|-----x-2----------|-x-x-x-x-2--------|-----x------------|
D|------------------|------------------|------------------|------------------| 
A|------------------|------------------|------------------|------------------|
E|------------------|------------------|------------------|------------------|

Guitars 1 & 2 (distorted):

E|------------------|------------------|------------------|------------------|
B|------------------|------------------|------------------|------------------|
G|-7-7-7---7---7-7--|--------10----12--|-7-7-7---7---7-7--|----10--------12--|
D|------------------|------10----12----|------------------|------10----12----|
A|-5-5-5---5---5-5--|-----8----10------|-5-5-5---5---5-5--|---------810------|
E|------------------|------------------|------------------|------------------|

E|------------------|------------------|------------------|------------------|
B|------------------|------------------|------------------|------------------|
G|-7---7---7-7-7-7--|--------10----12--|-7-7-7---7/-------|------------------|
D|------------------|------10----12----|------------------|---x-3---5-5-5----|
A|-5---5---5-5-5-5--|-----8----10------|-5-5-5---5/-------|---x-3---5-5-5----|
E|------------------|------------------|------------------|---x-1---3-3-3----|
    
Guitar 1 (distorted):

E|------------------|
B|------------------|
G|------------------|
D|---x-3---5-5-5----|
A|---x-3---5-5-5----|
E|---x-1---3-3-3----|

Guitar 2 (distorted):
                                                            
E|------------------|
B|------------------|
G|---x10--121212----|
D|---x10--121212----|
A|---x-8--101010----|
E|------------------|

Chorus :
------------------------------------------------------------------------------

Guitar 1 (distorted):

E|-5---5---5-5-5----|------------------|------------------|------------------|
B|-6---6---6-6-6----|------------------|------------------|------------------|
G|-7---7---7-7-7-5--|-----5---5-5-5----|---------------3--|-----3---3-3-3-7--|
D|-7---7---7-7-7-5--|-----5---5-5-5-5--|-----5---5-5-5-3--|-----3---3-3-3-7--|
A|-5---5---5-5-5-3--|-----3---3-3-3-5--|-----5---5-5-5-1--|-----1---1-1-1-5--|
E|------------------|---------------3--|-----3---3-3-3----|------------------|

E|------------------|------------------|------------------|------------------|
B|------------------|------------------|------------------|------------------|
G|-----7---7-7-7-5--|-----5---5-5-512--|----1212--12--12--|--121212--1212-7--|
D|-----7---7-7-7-5--|-----5---5-5-5----|------------------|---------------7--|
A|-----5---5-5-5-3--|-----3---3-3-310--|----1010--10--10--|--101010--1010-5--|
E|------------------|------------------|------------------|------------------|

E|------------------|------------------|------------------|------------------|
B|------------------|------------------|------------------|------------------|
G|-----7---7-7-7-5--|-----5---5-5-5----|---------------3--|-----3---3-3-3-7--|
D|-----7---7-7-7-5--|-----5---5-5-5-5--|-----5---5-5-5-3--|-----3---3-3-3-7--|
A|-----5---5-5-5-3--|-----3---3-3-3-5--|-----5---5-5-5-1--|-----1---1-1-1-5--|
E|------------------|---------------3--|-----3---3-3-3----|------------------|

E|------------------|------------------|------------------|------------------|
B|------------------|------------------|------------------|------------------|
G|-----7---7-7-7-5--|-----5---5-5-512--|1212121212121212--|1212121212121212--|
D|-----7---7-7-7-5--|-----5---5-5-5----|------------------|------------------|
A|-----5---5-5-5-3--|-----3---3-3-310--|1010101010101010--|1010101010101010--|
E|------------------|------------------|------------------|------------------|

Guitar 2 (distorted):

E|-5---5---5-5-5----|------------------|------------------|------------------|
B|-6---6---6-6-6----|------------------|------------------|------------------|
G|-7---7---7-7-7-5--|-----5---5-5-5----|---------------3--|-----3---3-3-3-7--|
D|-7---7---7-7-7-5--|-----5---5-5-5-5--|-----5---5-5-5-3--|-----3---3-3-3-7--|
A|-5---5---5-5-5-3--|-----3---3-3-3-5--|-----5---5-5-5-1--|-----1---1-1-1-5--|
E|------------------|---------------3--|-----3---3-3-3----|------------------|

E|------------------|------------------|------------------|------------------|
B|------------------|------------------|------------------|------------------|
G|-----7---7-7-7-9--|-----9---9-9-916--|----1616--16--16--|--161616--1616-7--|
D|------------------|------------------|------------------|---------------7--|
A|-----5---5-5-5-7--|-----7---7-7-714--|----1010--10--10--|--101010--1010-5--|
E|------------------|------------------|------------------|------------------|

E|------------------|------------------|------------------|------------------|
B|------------------|------------------|------------------|------------------|
G|-----7---7-7-7-5--|-----5---5-5-5----|---------------3--|-----3---3-3-3-7--|
D|-----7---7-7-7-5--|-----5---5-5-5-5--|-----5---5-5-5-3--|-----3---3-3-3-7--|
A|-----5---5-5-5-3--|-----3---3-3-3-5--|-----5---5-5-5-1--|-----1---1-1-1-5--|
E|------------------|---------------3--|-----3---3-3-3----|------------------|

E|------------------|------------------|------------------|------------------|
B|------------------|------------------|------------------|------------------|
G|-----7---7-7-7-5--|-----5---5-5-516--|1616161616161616--|1616161616161616--|
D|-----7---7-7-7-5--|-----5---5-5-5----|------------------|------------------|
A|-----5---5-5-5-3--|-----3---3-3-314--|1414141414141414--|1414141414141414--|
E|------------------|------------------|------------------|------------------|

Bridge:
------------------------------------------------------------------------------

Guitar 1:

E|------------------|------------------|---------------xx-|10-10-10-10-10-10-|
B|------------------|------------------|---------------xx-|10-10-10-10-10-10-|
G|------------------|------------------|---------------xx-|10-10-10-10-10-10-|
D|------------------|------------------|------------------|------------------|
A|------------------|------------------|------------------|------------------|
E|------------------|------------------|------------------|------------------|

E|-x--10---x--10----|------------------|-x--10---x--10----|------------------|
B|-x--10---x--10----|-x-x10-x-x-x10-x--|-x--10---x--10----|-x-x10-x-x-x10-x--|
G|-x--10---x--10----|-x-x10-x-x-x10-x--|-x--10---x--10----|-x-x10-x-x-x10-x--|
D|------------------|-x-x10-x-x-x10-x--|------------------|-x-x10-x-x-x10-x--| x 2
A|------------------|------------------|------------------|------------------|
E|------------------|------------------|------------------|------------------|

E|-x10----10---x----|------------------|-x1010--10---x----|------------------|
B|-x10----10---x----|-x-x10-x-x-x10-x--|-x1010--10---x----|-x-x10-x-x-x10-x--|
G|-x10----10---x----|-x-x10-x-x-x10-x--|-x1010--10---x----|-x-x10-x-x-x10-x--|
D|------------------|-x-x10-x-x-x10-x--|------------------|-x-x10-x-x-x10-x--|
A|------------------|------------------|------------------|------------------|
E|------------------|------------------|------------------|------------------|

E|-x10----10---x----|------------------|-x10-x-x10-x-x-x--|------------------|
B|-x10----10---x----|-x-x10-x-x-x10-x--|-x10-x-x10-x-x-x--|-x-x10-x-x-x10-x--|
G|-x10----10---x----|-x-x10-x-x-x10-x--|-x10-x-x10-x-x-x--|-x-x10-x-x-x10-x--|
D|------------------|-x-x10-x-x-x10-x--|------------------|-x-x10-x-x-x10-x--|
A|------------------|------------------|------------------|------------------|
E|------------------|------------------|------------------|------------------|

E|-x-x10-x-x-x10-x--|------------------|-x-x10-x-x-x10-x--|------------------|
B|-x-x10-x-x-x10-x--|-x-x10-x-x-x10-x--|-x-x10-x-x-x10-x--|-x-x10-x-x-x10-x--|
G|-x-x10-x-x-x10-x--|-x-x10-x-x-x10-x--|-x-x10-x-x-x10-x--|-x-x10-x-x-x10-x--|
D|------------------|-x-x10-x-x-x10-x--|------------------|-x-x10-x-x-x10-x--|
A|------------------|------------------|------------------|------------------|
E|------------------|------------------|------------------|------------------|

E|-x-x10-x-x-x10-x--|------------------|-x-x10-x-x-x10-x--|------------------|
B|-x-x10-x-x-x10-x--|-x-x10-x-x-x10-x--|-x-x10-x-x-x10-x--|-x-x10-x-x-x10-x--|
G|-x-x10-x-x-x10-x--|-x-x10-x-x-x10-x--|-x-x10-x-x-x10-x--|-x-x10-x-x-x10-x--|
D|------------------|-x-x10-x-x-x10-x--|------------------|-x-x10-x-x-x10-x--|
A|------------------|------------------|------------------|------------------|
E|------------------|------------------|------------------|------------------|

Outro:
------------------------------------------------------------------------------

Guitar 1 (distorted):

E|------------------|------------------|------------------|------------------|
B|------------------|------------------|------------------|------------------|
G|-7-7-7---7---7-7--|--------10----12--|-7-7-7---7---7-7--|----10--------12--|
D|------------------|------10----12----|------------------|------10----12----|
A|-5-5-5---5---5-5--|-----8----10------|-5-5-5---5---5-5--|---------810------|
E|------------------|------------------|------------------|------------------|

E|------------------|------------------|------------------|------------------|
B|------------------|------------------|------------------|------------------|
G|-7-7-7---7---7-7--|--------10----12--|-7-7-7---7--------|------------------|
D|------------------|------10----12----|------------------|------------------|
A|-5-5-5---5---5-5--|-----8----10------|-5-5-5---5--------|------------------|
E|------------------|------------------|------------------|------------------|
                                                            
Guitar 1 (distorted):

E|------------------|------------------|------------------|------------------|
B|------------------|------------------|------------------|------------------|
G|-7-7-7---7---7-7--|--10101012121212--|-7-7-7---7---7-7--|--10101012121212--|
D|-7-7-7---7---7-7--|--10101012121212--|-7-7-7---7---7-7--|--10101012121212--|
A|-5-5-5---5---5-5--|---8-8-810101010--|-5-5-5---5---5-5--|---8-8-810101010--|
E|------------------|------------------|------------------|------------------|

E|------------------|------------------|------------------|------------------|
B|------------------|------------------|------------------|------------------|
G|-7-7-7---7---7-7--|--10101012121212--|-7-7---7-7---9-9--|---9-9-91010-9-9--|
D|-7-7-7---7---7-7--|--10101012121212--|------------------|------------------|
A|-5-5-5---5---5-5--|---8-8-810101010--|-5-5---5-5---7-7--|---7-7-7-8-8-7-7--|
E|------------------|------------------|------------------|------------------|	

E|------------------|------------------|------------------|------------------|
B|------------------|------------------|------------------|------------------|
G|-7-7-7---7---7-7--|--10101012121212--|-7-7-7---7---7-7--|--10101012121212--|
D|-7-7-7---7---7-7--|--10101012121212--|-7-7-7---7---7-7--|--10101012121212--|
A|-5-5-5---5---5-5--|---8-8-810101010--|-5-5-5---5---5-5--|---8-8-810101010--|
E|------------------|------------------|------------------|------------------|

E|------------------|------------------|------------------|------------------|
B|------------------|------------------|------------------|------------------|
G|-7-7-7---7---7-7--|--10101012121212--|-7-9---910--1010--|--10--101010-9-9--|
D|-7-7-7---7---7-7--|--10101012121212--|------------------|------------------|
A|-5-5-5---5---5-5--|---8-8-810101010--|-5-7---7-8---8-8--|---8---8-8-8-7-7--|
E|------------------|------------------|------------------|------------------|

E|------------------|------------------|------------------|------------------|
B|------------------|------------------|------------------|------------------|
G|-7-7---x-7-7---x--|-9-9---x1010---x--|-7-7---x-7-7---x--|1010---x-9-9---x--|
D|------------------|------------------|------------------|------------------|
A|-5-5---x-5-5---x--|-7-7---x-8-8---x--|-5-5---x-5-5---x--|-8-8---x-7-7---x--|
E|------------------|------------------|------------------|------------------|

E|------------------|------------------|------------------|------------------|
B|------------------|------------------|------------------|------------------|
G|-7-7---x-7-7---x--|-9-9---x1010---x--|-7-7---7-7---7-7--|---7-7---7-7-7----|
D|------------------|------------------|------------------|------------------|
A|-5-5---x-5-5---x--|-7-7---x-8-8---x--|-5-5---5-5---5-5--|---5-5---5-5-5----|
E|------------------|------------------|------------------|------------------|	

Guitar 2 (distorted):

E|------------------|------------------|------------------|------------------|
B|------------------|------------------|------------------|------------------|
G|-7-7-7---7---7-7--|--10101012121212--|-7-7-7---7---7-7--|--10101012121212--|
D|-7-7-7---7---7-7--|--10101012121212--|-7-7-7---7---7-7--|--10101012121212--|
A|-5-5-5---5---5-5--|---8-8-810101010--|-5-5-5---5---5-5--|---8-8-810101010--|
E|------------------|------------------|------------------|------------------|

E|------------------|------------------|------------------|------------------|
B|------------------|------------------|------------------|------------------|
G|-7-7-7---7---7-7--|--10101012121212--|1010--1010--1212--|--12121214141212--|
D|-7-7-7---7---7-7--|--10101012121212--|------------------|------------------|
A|-5-5-5---5---5-5--|---8-8-810101010--|-8-8---8-8--1010--|--10101012121010--|
E|------------------|------------------|------------------|------------------|	

E|------------------|------------------|------------------|------------------|
B|------------------|------------------|------------------|------------------|
G|-7-7-7---7---7-7--|--10101012121212--|-7-7-7---7---7-7--|--10101012121212--|
D|-7-7-7---7---7-7--|--10101012121212--|-7-7-7---7---7-7--|--10101012121212--|
A|-5-5-5---5---5-5--|---8-8-810101010--|-5-5-5---5---5-5--|---8-8-810101010--|
E|------------------|------------------|------------------|------------------|

E|------------------|------------------|------------------|------------------|
B|------------------|------------------|------------------|------------------|
G|-7-7-7---7---7-7--|--10101012121212--|1012--1214--1414--|--14--1414141212--|
D|-7-7-7---7---7-7--|--10101012121212--|------------------|------------------|
A|-5-5-5---5---5-5--|---8-8-810101010--|-810--1012--1212--|--12--1212121010--|
E|------------------|------------------|------------------|------------------|

E|------------------|------------------|------------------|------------------|
B|------------------|------------------|------------------|------------------|
G|1010---x1010---x--|1212---x1414---x--|1010---x1010---x--|1414---x1212---x--|
D|------------------|------------------|------------------|------------------|
A|-8-8---x-8-8---x--|1010---x1212---x--|-8-8---x-8-8---x--|1212---x1010---x--|
E|------------------|------------------|------------------|------------------|

E|------------------|------------------|------------------|------------------|
B|------------------|------------------|------------------|------------------|
G|1010---x1212---x--|1414---x1717---x--|1919--1919--1919--|--1919--191919----|
D|------------------|------------------|------------------|------------------|
A|-8-8---x1010---x--|1212---x1515---x--|1717--1717--1717--|--1717--171717----|
E|------------------|------------------|------------------|------------------|
	
Guitars 1 & 2 (distorted):

E|------------------|------------------|
B|------------------|------------------|
G|-8-7-6-7-8-7-6----|-7/---------------|
D|---------------0--|-7/---------------|
A|------------------|-5/---------------|
E|------------------|------------------|


-----------------------------------------------------------------------------
If this tab was helpful and you're as big of a bandits fan as I am, be on the
lookout for more Rx Bandits tabs by yours truly.    

Added On December 16th, 2013

SHARE

Comments

blog comments powered by Disqus

ADVERTISEMENT