Ryan Adams Tabs

Wonderwall

1 versions

TAB

            Ok this is a looooong tab. And I've spent a heck of a long time on it. Listened to the
countless times to make sure it's pretty damn near perfect.
Right, the song can clearly be split into 2 parts. The first part (with only 1 guitar)
the second (with 2 guitars). I've tabbed both parts and both guitars. Watch out from
3 onwards because that's where the second guitar comes in and it all starts getting a
tricky. If you want to play this song properly take a good long look at every line. There
A LOT of subtle changes from time to time to the basic template of each riff. The timing
spot on too. I hope this helps.
Good luck... Oh, and if there is a duo out there who learn to play this entirely (both
I'd love to hear what you think. Maybe even how it sounds if possible..

puma86uk@yahoo.co.uk

Cheers :)


Ryan Adams - Wonderwall

Verse 1

gtr 1 capo 3
e||-------0---------------0---------|-------0---------------0---------||
B||---3-------3---3---3-------3---3-|---3-------3---3---3-------3---3-||
G||-----0-------0-------0-------0---|-----0-------0-------0-------0---||     X 5
D||---------------------------------|-0-------------------------------||
A||---------------------------------|-----------------0---------------||
E||-0---------------3---------------|---------------------------------||

                                                                             then

e||-------0---------------0---------|---------------0-----------------||
B||---3-------1---1---3-------3---3-|-------3---------------3-------3-||
G||-----0-------0-------0-------0---|---0-------0-------0-------0-----||     X 1
D||-----------------0---------------|-----2-------2-------2-------2---||
A||-3-------------------------------|---------------------------------||
E||---------------------------------|-0-------------------------------||

----------------------------------------------------------------------------------------

Verse 2

gtr 1 capo 3
e||-------0---------------0---------|-------0---------------0---------||
B||---3-------3---3---3-------3---3-|---3-------3---3---3-------3---3-||
G||-----0-------0-------0-------0---|-----0-------0-------0-------0---||
D||---------------------------------|-0-------------------------------||
A||---------------------------------|-----------------0---------------||
E||-0---------------3---------------|---------------------------------||

e||-------0---------------0---------|-------0---------------0---------||
B||---3-------3---3---3-------3---3-|---3-------3---3---3-------3---3-||
G||-----0-------0-------0-------0---|-----0-------0-------0-------0---||
D||---------------------------------|-0-------------------------------||
A||---------2-----------------------|-----------------0---------------||    

Added On December 16th, 2013

SHARE

Comments

blog comments powered by Disqus

ADVERTISEMENT