Sagi Rei Tabs

Lamour Toujours

1 versions

TAB

            Strum chords along with riff

Verse:

   D                   F#                   Bm              G
e|---------------------------------------------------------------------------|
B|------3----5----3---------2-----5----2---------3---5---3------3----5---3---|
G|----2---2----2----2-----3----3----3-----3----4---4---4------4----4---4---4-|
D|--4-------------------4--------------------4--------------5----------------|
A|---------------------------------------------------------------------------|
E|---------------------------------------------------------------------------|




Interlude:

e|-----5-----3----2-----5---3----2-------------------------------------------|
B|--3-----3----3-----2----2---2----3-----------------------------------------|
G|---------------------------------------------------------------------------|
D|---------------------------------------------------------------------------|
A|---------------------------------------------------------------------------|
E|---------------------------------------------------------------------------|

e|----5---3---2-----5---3---2-------5---3---2-----5---3---2------------------|
B|--3---3---3-----3---3---3---3---3---3---3-----2---2---2---3----------------|
G|---------------------------------------------------------------------------|
D|---------------------------------------------------------------------------|
A|---------------------------------------------------------------------------|
E|---------------------------------------------------------------------------|    

Added On December 16th, 2013

SHARE

Comments

blog comments powered by Disqus

ADVERTISEMENT