Saint Vitus Tabs

Living Backwards

1 versions

TAB

            Tabbed by : Rebeltildeth87

In Eb Standard tuning

Riff A
|-------------------------------|
|-------------------------------|
|-------------------------------|
|-------------------------------|
|-7-7-7-7-7-7-7-7-7-7-7-7-12-10-|
|-5-5-5-5-5-5-5-5-5-5-5-5-10--8-|
Riff B
|--------------------------------|
|--------------------------------|
|--------------------------------|
|-----12------10-----8-----------|
|---12--12--10--10--8-8--7-7-7-7-|
|-10-------8-------6-----5-5-5-5-|



Chandler prolly couldn't even transcribe his solos, so I wont either.

listen to the song for the structure


Thanks and enjoy    

Added On December 16th, 2013

SHARE

Comments

blog comments powered by Disqus

ADVERTISEMENT