San Cisco Tabs

Get Lucky

1 versions

TAB

            -------------------------------------------------------------------------------
                            Get Lucky-San Cisco
-------------------------------------------------------------------------------
Tabbed by:Jamescrev
E-mail:Jamescrev@gmail.com

Tuning:Standard

Chords: Repeat through out the entire song with changes in tempo and strumming
technique.  This is a Daft Punk song, that San Cisco covered on Triple J.  It is easy 
and really cool.

The Chords are inversions of

E Bm D F#m

     E      Bm    D    F#m

e|---7------5------9----7---------------------------------------------------|
B|---7------7-----10----9---------------------------------------------------|
G|---7------7-----11----9---------------------------------------------------|
D|---9------7-----11----9---------------------------------------------------|
A|---9------5------9----7---------------------------------------------------|
E|---7------5------9----7---------------------------------------------------|    

Added On December 16th, 2013

SHARE

Comments

blog comments powered by Disqus

ADVERTISEMENT