Santo Daime Tabs

Eu Sou Santa Maria

1 versions

TAB

            -------------------------------------------------------------------------------
                             Santo Daime - Eu Sou Santa Maria
-------------------------------------------------------------------------------
Tabbed by: Guillem Gallifa
E-mail:

Tuning: Standard

It's my first tab, about a song by Santo Daime, I don't know the name of the track 
exactly but the first part of the lyrics is as the title of the song

E|-----------------------------------------------------------------|
B|-----------------------------------------------------------------|
G|-----------------------------------------------------------------|
D|--5-------------5----------5-------------------------------------|
A|-----777-----7-----7----7----777----555--------------------------|
E|----------8-----------8----------8-------88----------------------|


E|--------------------------------------------------------------|
B|--------------------------------------------------------------|
G|--------------------------------------------------------------|
D|----------------------------7-5-------------------------------|
A|--5-3-----------33---5-7--------777---3--555----33------------|
E|-------5---55-------------------------------------------------|    

Added On December 16th, 2013

SHARE

Comments

blog comments powered by Disqus

ADVERTISEMENT