Saosin Tabs

Collapse

2 versions

TAB

            Hi guys first of all I wastedmy time because it blew away while I was making this anyway 
am very sure about this tab so if anyone of you find it something wrong then please 
them
and by the way There are Lead guitar and Rhythm guitar and An extra guitar but I didn't 
out the extra guitar but I guess I am going to tab out that soon ,I will put it on comment
and for the rhythm part listen carefully because I didn't put the time phrase and -|- 
doesn't mean time phrase I just put them for you guys to recognise repeated section

^ it means vibrato and harmonic
* it means stacatto
s is sliding


it goes

Intro
Verse1
Chorus
Verse2
Chorus
Bridge
Chorus
the ending

-------------------------------------------------------------------------------
			     Collapse - saosin
-------------------------------------------------------------------------------
Tabbed by:rg321mh
Email:rg321mh@gmail.com

Tuning:C drop(CGCFAd)

Intro

Lead guitar
A section
d--------------------------------------------------|
A--------------------------------------------------|
F--------------------------------------------------|
C-------9------------------9------------------9----| X2
G-7--9----10--9--10--7--10---10--9--10--7--10---10-|
C--------------------------------------------------|
Rhythm guiar
 play it using palm mute
d----------|------|
A----------|------|
F----------|------|
C-2--2--2--|-2--2-|
G-2--2--2--|-2--2-|
C-2--2--2--|-2--2-|

Lead guitar
---------------------------------------------------------------------------------------------|
---------------------------------------------------------------------------------------------|
---------------------------------------------------------------------------------------------|
------------9---------------------------------------------------7----------------------12--9-|
--7--9--10-----10--7--9--10---7--9--7---7--9--5-----------7--9-----10-----------9--10--------|
---------------------------------------------------------------------------------------------|
Rhythm guiar
 Slide from 2 to 12
d--------------------|
A--------------------|
F--------------------|
C-2s12--10---777--12-|
G-2s12--10---777--12-|
C-2s12--10---777--12-|

Verse

Lead guitar
----|--------------------------|--------------------------|
----|-------------------12--10-|-------------------12--10-|
-11-|--------11-----9----------|--------11-----9----------|
----|------------9-------------|------------9-------------|
----|-9*-10--------------------|-9*-10--------------------|
----|--------------------------|--------------------------|

---------------------------------------------------------------------------|
---------------------------------------------------------------------------|
----------------9h11---------9h11---------9h11---------9h11----------------|
--------12----------------------------------------------------------12-----|
-9--10------10--------9*-10-------9*-10--------9*-10--------9--10------10--|
---------------------------------------------------------------------------|

----|-------------------------|-------------------------|
----|------------------12--10-|------------------12--10-| and then play
-12-|--------12-----9---------|--------12-----9---------| A section twice
----|------------9------------|------------9------------|
----|-9*-10-------------------|-9*-10-------------------|
----|-------------------------|-------------------------|

rhythm guiar
Palm mute during the verse
----------------------------------------|
----------------------------------------|
----------------------------------------| X 2
-22222222--22222222--00000000--00000000-|
-22222222--22222222--00000000--00000000-|
-22222222--22222222--00000000--00000000-|

------------------------------------|
------------------------------------|
------------------------------------| X 2
-1010101010101010--1212121212121212-|  and then lead guitar plays
-1010101010101010--1212121212121212-|  A section but rhythm guitar doesn't play any
-1010101010101010--1212121212121212-|  when it comes to chorus just slide like intro section

Chorus

----------------|-------------------------|-------------------------|
-19--20--19-----|--19--20---19--20--19----|--19--20---19--20--19----|
-------------19-|-----------------------19|-----------------------19|
----------------|-------------------------|-------------------------|
----------------|-------------------------|-------------------------|
----------------|-------------------------|-------------------------|

----------------------------------19-----|----------------|------------------------|
-19--20---19--20--19------19--20------20-|-19--20--19-----|-19--20---19--20--19----|
-----------------------19----------------|-------------19-|---------------------19-|
-----------------------------------------|----------------|------------------------|
-----------------------------------------|----------------|------------------------|
-----------------------------------------|----------------|------------------------|


------------------------------|
-19h20---19h20---19h20--19h20-|
------------------------------|
------------------------------|
------------------------------|
------------------------------|

B section
---------------|
---------------|
---------------| play B section only for the first chorus
--------12--10-|
-9--10---------|
---------------|

Rhythm guitar
I am only giving you the chords (I am sure you guys are smart enough)
----------------------------|
----------------------------|
----------------------------|
-10--2--10--2s12--10--12--2-|
-10--2--10--2s12--10--12--2-|
-10--2--10--2s12--10--12--2-|

Bridge

Lead guitar
C section
-----------------------------------------------|
-12-12-12-12----12--10--12--10--12-10--7-8-7-8-|
-9--9--9--9-----9---9---9---9---9--9---7-7-7-7-|
-----------------------------------------------|
-----------------------------------------------|
-----------------------------------------------|

Also C section
----------------------------------------------------------------------------|
----------------------------------------------------------------------------|
-----------7----------------------------------------------------------------|
--------------------------------------------------------------7-------------|
-7--9--10-----10--7--9--10---7--9--7---7--9--5------7--9--10-----10--9--7h9-|
----------------------------------------------------------------------------|
Play C Section twice then following by D section

D section
|-------------------------------------------------|
|-------------------------------------------------|
|--------7--------------------7-------------------|
|-------------------------------------------------| X 2
|-9--10-----10--9--10--7--10-----10--9--10--7--10-| (play it twice and then play E section)
|-------------------------------------------------|

E section
----------------------------------------------------------------|
-------------------------------------------------------------^7-|
-----------7----------------------------------------------------|
----------------------------------------------------------------|
-7--9--10-----10--7--9--10---7--9--7---7--9--5------7--9--10----|
----------------------------------------------------------------|

Rhythm guitar
it's also just chords which means you gotta listen and catch the rhytm
----------|
----------|
----------| X4 (play it 4 times but last time ,rhythm guitar play without palm muting
-2--10--7-| like intro end part (listen)
-2--10--7-|
-2--10--7-|

The ending

Lead guitar
----------------|-------------------------|-------------------------|
-19--20--19-----|--19--20---19--20--19----|--19--20---19--20--19----|
----------------|-------------------------|-------------------------|
----------------|-------------------------|-------------------------|
----------------|-------------------------|-------------------------|
----------------|-------------------------|-------------------------|

----------------------------------19-----|
-19--20---19--20--19------19--20------20-|
-----------------------------------------|
-----------------------------------------|
-----------------------------------------|
-----------------------------------------|

Rhythm guitar
play the bridge Using palm mute only    

Added On December 16th, 2013

SHARE

Comments

blog comments powered by Disqus

VERSIONS

ADVERTISEMENT