Saosin Tabs

Sleepers

6 versions

TAB

            Sleepers Tab by Saosin


-------------------------------------------------------------------------------
			     SLEEPERS - Saosin
-------------------------------------------------------------------------------
Tabbed by: Kid Sky
Email: cute-whenyou-screamxx@hotmail.com

Tuning:EADGBe
Might be a bit big.. if anything, view the tab in Print mode. :]

Intro
Guitar 1
e|---------------------------------------------------------------------------|
B|------------8------------8------8------------------------------------------|
G|-------11-----11---11------11------11---11---------------------------------|x4
D|---7h9----9------9------------9-------9------------------------------------|
A|---------------------------------------------------------------------------|
E|---------------------------------------------------------------------------|

Guitar 2 (comes in after guitar 1 plays intro twice)
e|---------------------------------------------------------------------------|
B|---------------------------------------------------------------------------|
G|---9------7------5---------------------------------------------------------|
D|---9-x8---7-x8---5-x16-----------------------------------------------------|x2
A|---7------5------3---------------------------------------------------------|
E|---------------------------------------------------------------------------|

Guitar 1 (pre-verse)
e|--------------0-------------------------------------------------------------|
B|--------------0-------------------------------------------------------------|
G|--------------9----------------------------------------------------------|Let ring
D|---2------------------------------------------------------------------|
A|---2------------------------------------------------------------------------|
E|---0------------------------------------------------------------------------|

Verse
Guitar 1 & 2
e|-------------------------------------------------------------------------------------------|
B|-------------------------------------------------------------------------------------------|
G|---12--9-9-9-9-9-9-9-9-9-9-9-9-12-12-12-12-11-11-11-11-11-11-11-11-11-11-11-11-12-12-12----|

x4
A|---10--7-7-7-7-7-7-7-7-7-7-7-7-10-10-10-10-9--9--9--9--9--9--9--9--9--9--9--9--10-10-10----|
E|-------------------------------------------------------------------------------------------|

After guitar 1 plays the verse twice, it breaks off and plays this:
e|--------------10--------------10--------------10--12--------------10--------------10--------10--12--12--12|
B|--0--7--8--0------0--7--8--0------8--0--7--8----------0--7--8--0------0--7--8--0------8--0----------------|

x2
D|----------------------------------------------------------------------------------------------------------|
A|----------------------------------------------------------------------------------------------------------|
E|----------------------------------------------------------------------------------------------------------|

Pre-Chorus
Guitar 1
e|---------------------------------------------------------------------------|
B|----------------------------------7-----8----------------------------------|
G|---------------------------------------------------------------------------|
D|--2--2---2----2----2--2---2------------------------------------------------| x2
A|--2--2---2----2----2--2---2------------------------------------------------|
E|--0--0---0----0----0--0---0----0-----0-------------------------------------|

Guitar 2
first like this..
e|---------------------------------------------------------------------------|
B|---------------------------------------------------------------------------|
G|---------------------------------------------------------------------------|
D|--2--2---2----2----2--2---2-------4-----5----------------------------------|
A|--2--2---2----2----2--2---2------------------------------------------------|
E|--0--0---0----0----0--0---0----0-----0-------------------------------------|

the second time it's..
e|---------------------------------------------------------------------------|
B|------------3--3\----------------------------------------------------------|
G|------------4--4\----------------------------------------------------------|
D|--2--2---2---------2--2---2-------4-----5----------------------------------|
A|--2--2---2---------2--2---2------------------------------------------------|
E|--0--0---0---------0--0---0----0-----0-------------------------------------|

Then guitar 1 goes:
e|---------------------------------------------------------------------------|
B|----------------8------------8---------------------------------------------|
G|---------11--------11-----------11-----------------------------------------|
D|--7h9--------9-----------9----------9--------------------------------------|
A|---------------------------------------------------------------------------|
E|---------------------------------------------------------------------------|

Chorus
Guitar 1 & 2
e|---------------------------------------------------------------------------|
B|---------------------------------------------------------------------------|
G|---9------7------5---------------------------------------------------------|
D|---9-x8---7-x8---5-x16-----------------------------------------------------|x2
A|---7------5------3---------------------------------------------------------|
E|---------------------------------------------------------------------------|

Pre Outro
Guitar 1
e|---------------------------------------------------------------------------|
B|---------------------------------------------------------------------------|
G|--------------4------------------------------------------------------------|
D|--------5--4-----4---------------------------------------------------------|
A|--5--7--------------5--4--5------------------------------------------------|
E|---------------------------------------------------------------------------|

Outro
Guitar 1
e|--------------------------------------------------------------------------------------------------------------|
B|--------------------------------------------------------------------------------------------------------------|
G|-----------------------------------------------------------------------------------------------4--------------|

x4
A|--10--------9--10-----7-----------------------------------10--------9--10-----7----5--7--------------5--4--5--|
E|------0--0---------0-----0----0--0--0-0-0----0--0--0-0-0------0--0---------0----------------------------------|

Guitar 2
e|--------------------------------------------------------------------------------------------------------------|
B|--------------------------------------------------------------------------------------------------------------|
G|-----------------------------------------------------------------------------------------------4--------------|

x4
A|--5--7-----5--7-------7-----------------------------------5---7------5--7-----7----5--7--------------5--4--5--|
E|--------0---------0-----0----0--0--0-0-0----0--0--0-0-0----------0---------0----------------------------------|

After four times, the ending is like:
e|--------------------------------------------------------------------------------|
B|--------------------------------------------------------------------------------|
G|--------------------------------------------------------------------------------|
D|--2-------2------2--2----2------------------------------------------------------|
A|--2-------2------2--2----2------------------------------------------------------|
E|--0-------0------0--0----0------------------------------------------------------|

The order goes:
Intro
Pre Verse
Verse
Pre Chorus
Chorus
Pre Verse
Verse
Pre Chorus
Chorus
Pre Verse
Pre Outro
Outro

===============================================================================    

Added On December 5th, 2013

SHARE

Comments

blog comments powered by Disqus

VERSIONS

ADVERTISEMENT