Say Anything Tabs

Ahh Men

1 versions

TAB

            This is off of their new cd that hasn't came out yet.
im new to guitar but i think this is it.

Say Anything
Ahh, Men
Tabbed by Kevin Miner

intro:
|--------------------------------------------------------------------------|
|--------------------------------------------------------------------------|
|--------------------------------------------------------------------------|
|--2-2----8---888-----------2-2---8----------------------------------------|
|--3-3----9---999---(x3)----3-3---9----------------------------------------|
|--3-3----9---999-----------3-3---9----------------------------------------|

Verses:
|--------------------------------------------------------------------------|
|--------------------------------------------------------------------------|
|----------------------------Variants#1--------#2--------------------------|
|--2-2----8---888-----------2-2---7-8-8-------2-2---9-8-8------------------|
|--3-3----9---999---(x2)----3-3---8-9-9-------3-3--10-9-9------------------|
|--3-3----9---999-----------3-3---8-9-9-------3-3--10-9-9------------------|

its not a set song yet so it might change, play around with it some. i've watch two
of this song and he uses the variants at different times.

and now for the fun part

Can i lie with you in your grave
|--------------------------------------------------------------------------|
|--------------------------------------------------------------------------|
|-12-------12--------12---------12-----------------------------------------|
|-10--(x4)-10--(x4)-----(x4)-----9--(x4)-----------------------------------|
|--7--------8--------10---------10-----------------------------------------|
|---------------------8----------------------------------------------------|

it repeats like that untill the end. once i learn the lyrics and see more videos i can
correct this. any comments or suggestions please email me and let me know
the_kevin_divine@yahoo.com    

Added On December 16th, 2013

SHARE

Comments

blog comments powered by Disqus

ADVERTISEMENT