Say Anything Tabs

Alive With The Glory Of Love

3 versions

TAB

            Alive With The Glory Of Love Tab by Say Anything


-----------------------------------------------------------------------------
	           Alive with the Glory of Love - Say Anything
-----------------------------------------------------------------------------

Tuning: STANDARD

Intro
E|-0-0-0-0-0-0-0-0-0-0-------------------------------------------|
B|-0-0-0-0-0-0-0-0-0-0-------------------------------------------|
G|-7-7-7-7-7-7-7-7-7-7---------------------7-7-7-----------------|
D|-6-6-6-6-6-6-6-6-6-6---------------------------6-6-6-------6---|
A|-7-7-7-7-7-7-7-7-7-7---------------------------------7-7-7-----|
E|-0-0-0-0-0-0-0-0-0-0-play twice and then-----------------------| then play the first thing again 


Verse
E|---------------------------------------------------------------|
B|--3-3-3--22-222222-2-2--22-222222-2-2--22-222229-9-9--99-99999-|
G|--2-2-2--22-222222-2-2--22-222222-2-2--22-222229-9-9--99-99999-|
D|--x-x-x--xx-xxxxx0-0-0--00-000002-2-2--22-222229-9-9--99-99999-|
A|--2-2-2--22-22222-----------------0-0--00-000007-7-7--77-77777-|
E|---------------------------------------------------------------|

E|--------------------------------2-2-2--22-22222----------------|
B|--3-3-3--22-222222-2-2--22-222222-2-2--22-222229-9-9-9-9-9-9-9-|
G|--2-2-2--22-222222-2-2--22-222222-2-2--22-222229-9-9-9-9-9-9-9-|
D|--x-x-x--xx-xxxxx0-0-0--00-000004-4-4--44-444449-9-9-9-9-9-9-9-|
A|--2-2-2--22-22222---------------4-4-4--44-444447-7-7-7-7-7-7-7-|
E|-----------------------------------------------0-0-0-0-0-0-0-0-|

Chorus
E|-------2-----7-----------|
B|-2-----2-----9-----3-----|
G|-2-----2-----9-----2-----|
D|-0-16X-4-----9-----x-----|     
A|-------4-16x-7-----3-16x-|
E|-------------0-16x-------|

Riff
E|---------------------------------------------------------|
B|---------------------------------------------------------|
G|-6h7-7-6-7-6-6h7-7-6-7-7-7p6-6-6-7-7-6p4-4---------------| 
D|---------------------------------------------------------|
A|---------------------------------------------------------|
E|---------------------------------------------------------|    

Added On December 12th, 2013

SHARE

Comments

blog comments powered by Disqus

VERSIONS

ADVERTISEMENT