Say Anything Tabs

Slowly Through A Vector

1 versions

TAB

            most of this tab was found on "http://geocities.com/stalk_on/"

i just made a few edits and thought to put it up where more people could find it

introduction
E|-------------------------------------------------------------|
B|-------------------------------------------------------------|
G|--------------------------2-5------------------------2-5-2-5-|   x2
D|----------2-5---5-5-5-5-5---------------2-5---5-5-5----------|
A|--3-3-3-5-----------------------3-3-3-5----------------------|
E|-------------------------------------------------------------|


verses
E|-----------------------------------------------|
B|-----3-------------3--3/5----------------------|
G|-----------------------------------------------|
D|---2--------3----2-----------3~~---------------|
A|--3-3-----3-----3-3--------3----3~-------------|
E|---------1-1--------------1-1------------------|

chorus
E|------------------------------|
B|------------------------------|
G|------------------------------|
D|-------------------------777--|
A|----------3-------3------777--|
E|--3---3-5---5-3-5--------555--|

E|-----------------------------|
B|-----------------------------|
G|-----------------------------|
D|--------------2-5--------777-|
A|----------3-5-----3------777-|
E|--3---3-5----------------555-|


bridge
E|----------------------------|
B|----------------------------|
G|--------------------7--9-7--|
D|--3--2--3--2--3--2--7--9-7--|
A|--3--3--3--3--3--3--5--7-5--|
E|--1--0--1--0--1--0----------|


outro HA HA HA SHOW ME WHATCHA GOT
E|--------------------------------------------------------|
B|----5-5---555---5-5---555------5-5---555----5-5---555---|
G|----5-5---555---5-5---555------5-5---555----5-5---555---|
D|----------------------------33-----3-----33-----3-------|
A|--33----3-----33----3-----------------------------------|
E|--------------------------------------------------------|    

Added On December 16th, 2013

SHARE

Comments

blog comments powered by Disqus

ADVERTISEMENT