Say Hi Tabs

Bruises To Prove It

1 versions

TAB

            -------------------------------------------------------------------------------
			     BRUISES TO PROVE IT - Say Hi
-------------------------------------------------------------------------------
Tabbed by: det
Email: royallwithcheese@gmail.com
say hi: http://www.sayhitoyourmom.com/

Tuning: Standard


intro/verse/chorus:
e|--------------------------------------------------------------------|
B|------------------------1--x-x--1--x--1------------------------1----|
G|------------------------0--x-x--0--x--0------------------------2----|
D|--3-3-3--3--3--2--------2--x-x--2--x--2--3-3-3--3--3--2--------2----|
A|------------------3--3--3--x-x--3--x--3------------------0--0--0----|
E|--------------------------------------------------------------------|


e|---------------------------------------------------------------------|
B|-x-x--1--x--1--------------------------------------------------------|
G|-x-x--2--x--2----[repeat bunch of times]-----------------------------|
D|-x-x--2--x--2--------------------------------------------------------|
A|-x-x--0--x--0--------------------------------------------------------|
E|---------------------------------------------------------------------|

refrain:
G                E                     C
    Still that's better than a torn up heart    

Added On December 16th, 2013

SHARE

Comments

blog comments powered by Disqus

ADVERTISEMENT