Scandal Tabs

Namida No Regret

1 versions

TAB

            Namida no Riguretto(The Tears of Regret Spilled After I Smiled)
SCANDAL


Intro:
G
C D Bm Em
Am D G G7
C D B Em
Am D G

G G/F#

Intro:(solo)

Intro Solo:
e-------------12--------------------------------------------------|
B---------12-----15--12------15-12--------12------------------12--|
G-12--14-----------------14---------12-14---------12-11-12-14-----|
D---------------------------------------------14------------------|
A-----------------------------------------------------------------|
E-----------------------------------------------------------------|
    Em Bm C D G

e-----------12----------------------------------------------------|
B-------12------15--12------15-12---------------------------------|
G-12-14-----------------14---------12-11-----11-12-----11-12------|
D----------------------------------------14---------14------------|
A-----------------------------------------------------------------|
E-----------------------------------------------------------------|

e-----------------------------------------------------------------|
B-13--12--13-12---------------------------------------------------|
G---------------14------------------------------------------------|
D-----------------------------------------------------------------|
A-----------------------------------------------------------------|
E-----------------------------------------------------------------|
    Em Bm Am D

Verse:
C
D Em
Am D G
C
D Em
Am B

Pre-Chorus:
C D B Em D
Am Bm C B

Chorus:
C D Bm Em
Am D G G7
C D B Em
Am D G

Instrumental:(Solo)
e-----------12----------------------------------------------------|
B-------12------15--12------15-12---------------------------------|
G-12-14-----------------14---------12-11-----11-12-----11-12------|
D----------------------------------------14---------14------------|
A-----------------------------------------------------------------|
E-----------------------------------------------------------------|

e-----------------------------------------------------------------|
B-13--12--13-12---------------------------------------------------|
G---------------14------------------------------------------------|
D-----------------------------------------------------------------|
A-----------------------------------------------------------------|
E-----------------------------------------------------------------|
    Em Bm Am D

Repeat Verse

Repeat Chorus

Solo:
Solo:
e----------------------------------------------------------------------|
B-12--13--15--15--15--15--15--15--12-12-12-12--13--13--12--------------|
G-12--12--12--12--11--11--11--11-----12----12--12---------14-12-12--11-|
D---------------------------------------------------------------12--12-|
A----------------------------------------------------------------------|
E----------------------------------------------------------------------|
      C D Bm Em Am D

Bridge:
Eb F
Dm Gm
Eb F
D B

Chorus II:
C D Bm Em
Am D G
C D Bm Em
Am D G G7
C D B Em
Am D G

Outro
C D Bm Em )
C D G } (x2)
C D G
G (x3)

============================================================================
Namida no Riguretto
Scandal

Intro:
Namida no riguretto
Egao kara koboreta
Natsuiro no machi kagayaku kara

Sayonara no kawari ni
Chiisakuunazuite
Bokutachi wa aruki hajimeru

Verse I:
basu wo matsu tonari de
Yuugure sotto narande mita
Warukunai ne koibito ni mieru kana

Madou garasu ni utsuta
Futatsu no kage chigireru youni
Bokutachi wa otona ni natte yuku

Pre-Chorus:
Akiramero warui shounen datte
Itazura ni hanasu yokogao ni
Me wo tojite kedo
Wakatteru tsumori

Chorus:
Namida wa kanashimi no
Soba ni aru dake janai
Ima konna ni mo itoshiiku naru

Hajimari no sayonara
Ienakatta yakusoku
Bokutachi wa aruki hajimeru

Verse II:
“Denwa suru”-tte itteta
Usotsuki ga te wo furuteiru
Osananajimi mitai na mono daroutte

Sonna ni nibui mama de
Tokkai de kurashite ikeru no
Koraeteru hazu na no ni

Chorus:
Namida no riguretto
Egao kara koboreta
Natsuiro no machi kagayaku kara

Sayonara no kawari ni
Chiisakuunazuite
Bokutachi wa aruki hajimeru


(Adlib)

Bridge:
Honto wa tsuyogari no jibun ga
Kirai ni narisou na hibi yo
Yukkuri to furikaeru
Kimi no koe ga kikoeta

Chorus II:
Kurau ka wakaranai
Demo yukushika ne ii darou
Sonna koto shiite miru kara

Namida ni kakureteru
Kotobatachi ga kikoeru
Itsuka kannarazu kurushikunaru

Honto ni sayonara
Modorenai yakusoku wo
Bokutachi wa kakaeteyuku no ni

Outro:
La la la la la la la (8x)

Natsuiro no mama
Kieta…    

Added On December 16th, 2013

SHARE

Comments

blog comments powered by Disqus

ADVERTISEMENT