Screeching Weasel Tabs

The Science Of Myth

1 versions

TAB

            Science of Myth
                         This is my first tab, I hope its good
Screeching Weasel


Intro

E-------|
B-------|
G-------|
D-11-x20
A-9-----|
E-------|

verse

E---------|
B---------|
G---------|     (x2)
D-11-x8---|
A-9-----9-|
E-------7-|x8

Bridge

E-------------------------------------------|
B-------------------------------------------|
D-88-8--66-6--44-4 (x3)   verse ending   4--|
A-66-6--44-4--22-2                       2--| x8
E-------------------------------------------|


Bridge before chorus ends

D-4-------4------|
A-2-(x4)--6------|(x4)
E----------------|

Chorus

E--------------------------------|
B--------------------------------|
G--------------------------------|
D-8-------6-------8-------4------|
A-6-(x4)--4-(x4)--6-(x4)--2------|(X4)
E--------------------------------|

E----------------|
B----------------|
G----------------|
D-8-------6------|
A-6-(X4)--4------|(X4)
E----------------|

Verse 2

E----------------------------------|
B----------------------------------|
G----------------------------------|    (x4)
D-9-------11-----------------------|
A-7-(x4)--9-(x4)--9-------11-------|
E-----------------7-(x4)--9--------|(x4)


Intro
verse 1
Bridge
Verse 1
Bridge
Chorus
Verse 2
Verse 1
Bridge
Chorus    

Added On December 16th, 2013

SHARE

Comments

blog comments powered by Disqus

ADVERTISEMENT