Sean Lennon Tabs

Parachute

1 versions

TAB

            Parachute Tab by Sean Lennon


Sean Lennon – Parachute

Song starts with riff1
     Bm                        Fm#
E||-------------------------|------------------------|
B||--10-----10-----9-----9--|---9-----9-----7-----7--|
G||-----7------7-----7-----7|-----6-----6-----6-----6|
D||-------------------------|------------------------|
A||-------------------------|------------------------|
E||-------------------------|------------------------|

   D7                       C#*
-------------------------|-------------------------|
---7-----7-----5-----7---|--6-----6-----7-----9----|
-----5-----5-----5-----5-|----6-----6-----6-----6--|
-------------------------|-------------------------|
-------------------------|-------------------------|
-------------------------|-------------------------|


F#m                   C#
Love is like an aero plane                                                                    
                       A
You jump and then you pray 
                 Adim
The lucky ones remain 
                   Bm (second guitar starts riff1)
In the clouds for days 
                   Fm# 
If life is just a stage 
                  D7
Let’s put on the best show 
             C#* 
And let everyone know 

(chorus) 
                   Bm       E
Cause if I have to die tonight 
        A           D
I’d rather be with you 
Bm          C#*               F#m
Cut the parachute before the dive 
F#             Bm              E
Baby don’t you cry 
    A                 D
You have to bring me down 
   Bm              C#*              D
We had some fun before we hit the ground 

Love is like a hurricane 
You know it’s on the way 
You think you can be brave 
Underneath the waves 
If life is just a dream 
Which of us is dreaming 
And who will wake up screaming 

Cause if I have to die tonight 
I’d rather be with you 
Cut the parachute before the dive 
Baby don’t you cry 
You have to bring me down 
We had some fun before we hit the ground 

(solo)

Cause if I have to die tonight 
I’d rather be with you 
Cut the parachute before the dive 
Baby don’t you cry 
You have to bring me down 
We had some fun before we hit the ground 

Cause if I have to die tonight 
I’d rather it was you 
Cut the parachute before the dive 
Baby don’t you cry 
You have to bring me down 
We had some fun before we hit the ground 

Chords:
C#  (x46664)
C#* (x43121)
Adim (576655) or (x02120)



Tabbed by Marco Nascimben and Francesco Bianco    

Added On December 12th, 2013

SHARE

Comments

blog comments powered by Disqus

ADVERTISEMENT