Secondhand Serenade Tabs

End

1 versions

TAB

            End Tab by Secondhand Serenade


-------------------------------------------------------------------------------
			     End - Seondhand Serenade
-------------------------------------------------------------------------------
Tabbed by: Zombi017
Email: Zombie017@aol.com

Tuning: Standard

e|---------------------------------------------------------------------------|
B|------0-----------0-----------0-----------0-----------0-----------0--------|
G|----4---4-------4---4-------4---4-------4---4-------4---4-------4---4------|
D|--2-------2---2-------2---2-------2---2-------2---2-------2---2-------2----|
A|------------------------4-----------4-----------0-----------0-----------0--|
E|0-----------0--------------------------------------------------------------|

do this until they from the chord which are what you are picking but I'll post the chord 
anyways in the way I believe they sound correct.

e|----0----0----0----|
B|----0----0----0----|
G|----4----4----4----|
D|----2----2----2----|
A|----x----4----0----|
E|----0----x----x----|

fairly easy song since it's extremely repetative. if you have any sudgestions post them 
that I might be able to fix them and make the tab perfect. this is the first song I've 
tried learning by ear and my first tab.    

Added On December 12th, 2013

SHARE

Comments

blog comments powered by Disqus

ADVERTISEMENT