Seether Tabs

Like Suicide

4 versions

TAB

            -------------------------------------------------------------------------------
			     LIKE SUICIDE - Seether
-------------------------------------------------------------------------------
Tabbed by: zreb
Email: oc.phox@gmail.com

This is the song Seether recently posted on their MySpace blog that is expected to
on their new album due August.  I am not a great guitarist, but this at least sounds like
Shaun is playing in my ears.  I TABBED TO THE BEST OF MY ABILITY.  The "chorus" I'm sure 
a little fuzzy--someone'll probably have to figure it out better than I did.

This is all there is to the song right now.

Tuning: Drop D 1/2 step (Db)

Verse:
eb|---------------------------------------------------------------------------|
Bb|---6-----------6-----------6-------5-----------5-----------5---------------|
Gb|-------7---7-------7---7-------7-------7---7-------7---7-------7-----------|
Db|---------------------------------------------------------------------------|
Ab|---------------------------------------------------------------------------|
Db|---------------------------------------------------------------------------|

eb|---------------------------------------------------------------8----------------------|
Bb|---6-----------6-----------6-------8-----------8-----------8--------------------------|
Gb|-------7---7-------7---7-------7-------7---7-------7---7------------------------------|
Db|--------------------------------------------------------------------------------------|
Ab|--------------------------------------------------------------------------------------|
Db|--------------------------------------------------------------------------------------|
^ Repeat 4x

'Chorus'
eb|--------------------------------------------------------------------|
Bb|--------------------------------------------------------------------|
Gb|-------------------------------7-----------------------------7------|
Db|---3p0-0-0-X-X-3p0-0-0-X-X-7---7---3p0-0-0-X-X-3p0-0-0-X-X-7-7-3h5--|
Ab|---3p0-0-0-X-X-3p0-0-0-X-X-7-------3p0-0-0-X-X-3p0-0-0-X-X-7---3h5--|
Db|---3p0-0-0-X-X-3p0-0-0-X-X-7-------3p0-0-0-X-X-3p0-0-0-X-X-7---3h5--|

eb|----------------------------------------------------------|
Bb|-------------------------------------------5---0----------|
Gb|-------------------------------7-----------5---0----------|
Db|---3p0-0-0-X-X-3p0-0-0-X-X-7---7---3---0---3-------1-1-1--|
Ab|---3p0-0-0-X-X-3p0-0-0-X-X-7-------3---0-----------1-1-1--|
Db|---3p0-0-0-X-X-3p0-0-0-X-X-7-------3---0-----------1-1-1--|
^ Repeat ?x

| h  hammer-on
| p  pull-off
| x  Mute note
===============================================================================    

Added On December 16th, 2013

SHARE

Comments

blog comments powered by Disqus

VERSIONS

ADVERTISEMENT