Senses Fail Tabs

Irony Of Dying On Your Birthday

5 versions

TAB

            Irony Of Dying On Your Birthday Tab by Senses Fail


The Irony of Dying on Your Birthday
Senses Fail
Off the album Let it Enfold You
tabbed by Daniel Miller
Flipskaterpsych@aol.com

This is one of my favorite songs on Let it Enfold You
The guitar isn't too tricky so if you're having any trouble just work on it and you'll get it.
This tab definately isn't perfect but its close enough that you won't be able to hear any difference.

Drop-D tuning

Intro
Guitar 1
e----------------------------------------------------|
B----------------------------------------------------|
G-12-12--12-12--12-12--13-13------8-8--8-8--8-8--7-7-|
D-10-10--10-10--10-10--10-10------6-6--6-6--6-6--6-6-|
A-10-10--10-10--10-10--10-10------6-6--6-6--6-6--6-6-|
D-10-10--10-10--10-10--10-10------6-6--6-6--6-6--6-6-|


e-------------------------------------------------------------|
B-------------------------------------------------------------|
G-12-12--12-12--12-12--13-13------7-7--7-7--7-7--8--8p7-------|
D-10-10--10-10--10-10--10-10------6-6--6-6--6-6--6--6-6-------|
A-10-10--10-10--10-10--10-10------6-6--6-6--6-6--6--6-6-------|
D-10-10--10-10--10-10--10-10------6-6--6-6--6-6--6--6-6-------|      3x's


Guitar 2 comes in on the third measure

e-------------------------------------------|
b-------------------------------------------|
G-12-12-12-12-12-13-13--8-8-8-8--10-10-8-7--|
D--x--x--x--x--x--x--x--x-x-x-x---x--x-x-x--|
A-10-10-10-10-10-11-11--6-6-6-6---8--8-6-5--|
D-------------------------------------------|  2x's


Verse (palm muted) 2 x's

e----------------------------------------------------------------|
B----------------------------------------------------------------|
G----------------------------------------------------------------|
D-10-10---10-10---10-10---10-10---10-10---10-10---10-10---10-10--|
A-10-10---10-10---10-10---10-10---10-10---10-10---10-10---10-10--|
D-10-10---10-10---10-10---10-10---10-10---10-10---10-10---10-10--|
   .  .    .  .    .  .    .  .    .  .    .  .    .  .    .  .
just know....
e-------------------------------------------------|
B-------------------------------------------------|
G-------------------------------------------------|
D-6-6---6-6---6-6---6-6---6-6---6-6---66666666----|
A-6-6---6-6---6-6---6-6---6-6---6-6---66666666----|
D-6-6---6-6---6-6---6-6---6-6---6-6---66666666----|
  . .   . .   . .   . .   . .   . .   ........

Pre-Chorus
Guitar 1

e------------------------------------------------|
B------------------------------------------------|
G------------------------------------------------|
D-10-10---10-12-13~----6-6---5-6-8-6-------------|
A-10-10----------------6-6-----------------------|
D-10-10----------------6-6-----------------------|
so follow...

e------------------------------------------------|
B------------------------------------------------|
G------------------------------------------------|
D-10-10---10-12-13~----6-6---5-6-----------------|
A-10-10----------------6-6---5-6-----------------|
D-10-10----------------6-6---5-6-----------------|


Guitar 2 Not sure about these notes but it was the best i could do

e------------------------------------------------|
B------------------------------------------------|
G------------------------------------------------|
D-10-10----------------6-6-----------------------|
A-10-10---10-11-13~----6-6---5-6-8-6-------------|
D-10-10----------------6-6-----------------------|

e------------------------------------------------|
B------------------------------------------------|
G------------------------------------------------|
D-10-10----------------6-6---5-6-----------------|
A-10-10---10-11-13~----6-6---5-6-----------------|
D-10-10----------------6-6---5-6-----------------|

Chorus 2 x's


Guitar 1

e-------------------------------------------------------------------------|
B-------------------------------------------------------------------------|
G-------------------------------------------------------------------------|
D-10-10-10-10-10-10-10-10-6-6-6-6-6-6-6-6-1-1-1-1-1-1-1-1-8-8-8-8---6---8-|
A-10-10-10-10-10-10-10-10-6-6-6-6-6-6-6-6-1-1-1-1-1-1-1-1-8-8-8-8---6---8-|
D-10-10-10-10-10-10-10-10-6-6-6-6-6-6-6-6-1-1-1-1-1-1-1-1-8-8-8-8---6---8-|

I locked myself...


Guitar 2

e----------------------------------------------------------------------------------|
B----------------------------------------------------------------------------------|
G-12-12-12-12-12-12-13-13---8-8-8-8-8-8-7-7---12-12-12-12-12-12-12-12-7-7-7-7--5-7-|
D--x--x--x--x--x--x--x--x---x-x-x-x-x-x-x-x----x--x--x--x--x--x--x--x-x-x-x-x--x-x-|
A-10-10-10-10-10-10-11-11---6-6-6-6-6-6-5-5---10-10-10-10-10-10-10-10-5-5-5-5--3-5-|
D----------------------------------------------------------------------------------|

Verse 2x's


Pre-Chorus


Chorus 2x's

Bridge 2 x's  palm muted

Guitar 1

e----------------------------------------------------------------------------------------------|
B----------------------------------------------------------------------------------------------|
G-88-77-----88-77-----88--77--88-77-----88-77-----88-77--88-77-----88-77-----88-77--10-10-8-7--|
D-------88--------88----------------88--------88---------------88--------88--------------------|
A----------------------------------------------------------------------------------------------|
D----------------------------------------------------------------------------------------------|
  .. .. ..  .. .. ..          .. .. ..  .. .. ..         .. .. ..  .. .. ..


Bridge 2 x's open


Guitar 2 2 x's palm muted

e----------------------------------------------------------------------------|
B----------------------------------------------------------------------------|
G----------------------------------------------------------------------------|
D-10-10-10-10-10-----6-6-6-6-6-----1-1-1-1-1-----8-8-8-8-8--6-6-6-6-6--8-8-8-|
A-10-10-10-10-10-----6-6-6-6-6-----1-1-1-1-1-----8-8-8-8-8--6-6-6-6-6--8-8-8-|
D-10-10-10-10-10-----6-6-6-6-6-----1-1-1-1-1-----8-8-8-8-8--6-6-6-6-6--8-8-8-|

Open

e----------------------------------------------------------------------------|
B----------------------------------------------------------------------------|
G----------------------------------------------------------------------------|
D-10-10---10-10------6-6---6-6------1-1---1-1-----8-8---8-8---6-6-8-8--------|
A-10-10---10-10------6-6---6-6------1-1---1-1-----8-8---8-8---6-6-8-8--------|
D-10-10---10-10------6-6---6-6------1-1---1-1-----8-8---8-8---6-6-8-8--------|

e--------------------------------------------------------------------------------------------------|
B--------------------------------------------------------------------------------------------------|
G--------------------------------------------------------------------------------------------------|
D-10-10--10-10--10-10--10-10-----6-6--6-6--6-6--6-6-----1-1--1-1--1-1--1-1-----8-8--8-8--8-8--8-8--|
A-10-10--10-10--10-10--10-10-----6-6--6-6--6-6--6-6-----1-1--1-1--1-1--1-1-----8-8--8-8--8-8--8-8--|
D-10-10--10-10--10-10--10-10-----6-6--6-6--6-6--6-6-----1-1--1-1--1-1--1-1-----8-8--8-8--8-8--8-8--|


Chorus 2x's

Thats it...i just saw this band 3 days ago and they were amazing...definately see them live
good luck with this song...its not too hard    

Added On December 12th, 2013

SHARE

Comments

blog comments powered by Disqus