Sepultura Tabs

Orgasmatron

3 versions

TAB

            Orgasmatron Tab by Sepultura


Artist:	Sepultura
Title:	Orgasmatron


Note: I just wanted to post something up so pardon the 
      imperfections... please e-mail me for any 
      comments or corrections.

Transcribed by:  tekguy28@hotmail.com


  >>
e|---------------------------------------------------------|
B|---------------------------------------------------------|
G|---------------------------------------------------------|
D|-9--9-9-9-x--9--9-9-9-x--9--9-9-9-x--9--9-9-9-x----------|
A|-7--7-7-7-7--7--7-7-7-7--7--7-7-7-7--7--7-7-7-7----------|
E|-0--0-0-0-0--0--0-0-0-0--0--0-0-0-0--0--0-0-0-0----------|

e|---------------------------------------------------------|
B|---------------------------------------------------------|
G|---------------------------------------------------------|
D|---------------------------------------------------------|
A|-7-7--7-7--7-7--7-7--7-7--7-7--7-7--7-7--7-7--7-7--7-7---|
E|-5-5--5-5--5-5--5-5--5-5--5-5--5-5--5-5--5-5--5-5--5-5---|

e|-------------------------|-------------------------------|
B|-------------------------|-------------------------------|
G|-------------------------|-------------------------------|
D|-------------------------|-9--9-9-9-x--9--9-9-9-x--------|
A|-7-7--7-7--7-7--7-7--7-7-|-7--7-7-7-7--7--7-7-7-7--------|
E|-5-5--5-5--5-5--5-5--5-5-|-0--0-0-0-0--0--0-0-0-0--------|    

Added On December 12th, 2013

SHARE

Comments

blog comments powered by Disqus

VERSIONS

ADVERTISEMENT