Serj Tankian Tabs

Beethovens Cunt

1 versions

TAB

            Tabbed by horandago
email: horandagoaudi@hotmail.com

I havn't seen a tab for this song so i thought i'd do what i know. It's not the whole 
and sorry for that, but at least it's something. Also, this is my first ever tab so pls 
me some slack.
-------------------|-------------|-----------------|---------------|
-------------------|-------------|-----------------|---------------|
-------------------|-------------|-----------------|---------------|
-------------------|-------------|-----1-3-1-------|----1-3-1------|
-------------------|-------------|-1-3-------3-1---|-1-3------3-1--|
-1-3-1-3-1-3-1-3-1-3-1-3-1-3-1-3-|---------------3-|--------------3|

-------------------|-------------------|
-------------------|-------------------|
-------------------|-------------------|
-2--3--0-----------|-2--3--0-----------|
-2--3--0-----------|-2--3--0-----------|
-2--3--0--------12\|-2--3--0--------12\|
...on your shoulders...in your worlds.....oceans are combined

.......PM..................PM...........
-------------------|-------------------|
-------------------|-------------------|
-------------------|-------------------|
-0-0-000--8-8-888--|-9-9-999---1-1-111-| X2
-0-0-000--8-8-888--|-9-9-999---1-1-111-|
-0-0-000--8-8-888--|-9-9-999---1-1-111-|
Being that i love you so much...

Soz, i don't know this bit "find the evil little perpetrator..."

                   ...............PM............ realese PM
-------------------|-----------------|---------|-------|
-------------------|-----------------|---------|-------|
-------------------|-----------------|---------|-------|
-0--0-3--30--0-3---|-----------------|---------|-------|
-0--0-3--30--0-3---|-----------------|---------|-------|
-0--0-3--30--0-3---|-4-6-4-6-4-6-4-6-|-7-9-7-9-|7-9-7--|
you want it all..   love is not about the profits...

-------------|
-------------|
-8--3--0-000-| X4
-8--3--0-000-|
-8--3--0-000-|
the arms of time..

--------------------|-------------|
--------------------|-------------|
--------------------|-------------|
--------------------|-------------|
--------------------|-------------|
-1-3-1-3-1-3-1-3-1-3|-1-3-1-3-1-3-|
do you beleive.....................in me

-------------------|-------------------|
-------------------|-------------------|
-------------------|-------------------|
-2--3--0-----------|-2--3--0-----------|
-2--3--0-----------|-2--3--0-----------|
-2--3--0--------12\|-2--3--0--------12\|
...but i don't mind....but i can't find.

.......PM..................PM...........
-------------------|-------------------|
-------------------|-------------------|
-------------------|-------------------|
-0-0-000--8-8-888--|-9-9-999---1-1-111-| X2
-0-0-000--8-8-888--|-9-9-999---1-1-111-|
-0-0-000--8-8-888--|-9-9-999---1-1-111-|
Being that i love you so much.....

Soz, i don't know this bit "find the evil little perpetrator..."
                   ...............PM............ realese PM
-------------------|-----------------|---------|-------|
-------------------|-----------------|---------|-------|
-------------------|-----------------|---------|-------|
-0--0-3--30--0-3---|-----------------|---------|-------|
-0--0-3--30--0-3---|-----------------|---------|-------|
-0--0-3--30--0-3---|-4-6-4-6-4-6-4-6-|-7-9-7-9-|7-9-7--|
you want it all..   love is not about the profits...

-------------|
-------------|
-8--3--0-000-| X4
-8--3--0-000-|
-8--3--0-000-|
the arms of time..

solo copy of SOAD streamline lol
-10-------12-------13-------15--13-12--13-10-|
----10-10----10-10----10-10------------------|
---------------------------------------------|
---------------------------------------------| X2
---------------------------------------------|
---------------------------------------------|

Really sorry, but i don't know anything else up to the end, it know the next riff is 
around the area played at the solo, but im not too sure, really sorry:
"But lately I've been blind
You leave me all alone, left in time,
You left me here to die, left in time,
Leave me all alone, left in time,"

-------------|
-------------|
-8--3--0-000-| X4
-8--3--0-000-|
-8--3--0-000-|
the arms of time..do you beleive..

-------------------|-------------|-----------------|---------------|
-------------------|-------------|-----------------|---------------|
-------------------|-------------|-----------------|---------------|
-------------------|-------------|-----1-3-1-------|----1-3-1------|
-------------------|-------------|-1-3-------3-1---|-1-3------3-1--|
-1-3-1-3-1-3-1-3-1-3-1-3-1-3-1-3-|---------------3-|--------------3| continueing vocals 
"beleive"....................in nothing!

Piano:
"But lately I've been blind
Leave me all alone, left in time".    

Added On December 16th, 2013

SHARE

Comments

blog comments powered by Disqus

ADVERTISEMENT