Serj Tankian Tabs

Wings Of Summer

1 versions

TAB

            Guitar part 1
-------------

e|-0---------0---------0--------0---------3-----------------0--------0---|
B|-0---------0---------0--------0---------3-----------------0--------0---|
G|-0---------8---------5--------4---------4--------4--------0--------0---|
D|-9---------8---------5--------4---------5--------5--------2--------4---|
A|-7---------7---------3--------2---------5--------5--------2--------2---|
E|-0---------0---------0--------0---------3--------3--------0--------0---|
   Emsus     Emdim7    [accord]C5       B5        G        Gsus7    Em       Eaug[/accord]
  
*ive liestened to this alot and i believe the chords above are right, or as close 
to as i can figure. 
there are two main guitars in the whole song, the first guitar plays the chords above.
i think the song is in the time signiture 6/8, but im not to sure.
each chord lasts for a whole bar, i havnt bothered to write out the strumming 
pattern because its pretty simple and you can always figure out your own.*

Guitar part 2
-------------

e|--------------------      e|----------------------|
B|--------------------      B|----------------------|
G|-------9----11---12-      G|-------11----11----11-|
D|--------------------  X4  D|----------------------|  X4
A|-------7----9 ---10-      A|-------10----10----10-|
E|--------------------      E|----------------------|

*the intro is played in two parts for this guitar part
But when the verse's and chorus are played, only the second half is played throughout.*

      Emsus       Emdim7
Well, I, I, wanna fly fly
       [accord]C5              B5[/accord]
On the wings, wings of summer
    G
G
e |---|---|-x-|---|---|
B |---|---|---|---|---|
G |---|---|---|---|---|
D |---|---|---|---|---|
A |---|-x-|---|---|---|
E |---|---|-x-|---|---|
Gsus7 But you, you put your eyes [accord]Em Eaug[/accord] You put your eyes on mine Emsus, Edim7, [accord]C5, B5, G, Gsus7, Em, Eaug[/accord] Emsus Edim7 Go, perfect your fall [accord]C5 B5[/accord] And no matter what smile for them all G
G
e |---|---|-x-|---|---|
B |---|---|---|---|---|
G |---|---|---|---|---|
D |---|---|---|---|---|
A |---|-x-|---|---|---|
E |---|---|-x-|---|---|
Gsus7 For today, we see never [accord]Em Eaug[/accord] Tomorrow's menu reads forever Emsus Emdim7 I, I wanna fly [accord]C5 B5[/accord] On the wings, of summer [accord]G Gsus7 Em Eaug[/accord] But you, put your eyes, on mine Emsus Emdim7 I, I wanna fly [accord]C5 B5[/accord] On the wings, of summer [accord]G Gsus7 Em Eaug[/accord] But you, you put your eyes, on mine Emsus Emdim7 Don't confess to the crime [accord]C5 B5[/accord] Till you lavish in your concubine G
G
e |---|---|-x-|---|---|
B |---|---|---|---|---|
G |---|---|---|---|---|
D |---|---|---|---|---|
A |---|-x-|---|---|---|
E |---|---|-x-|---|---|
Gsus7 When you think you got clever [accord]Em Eaug[/accord] They'll wheel you in and pull the lever Emsus Emdim7 I, I wanna fly [accord]C5 B5[/accord] On the wings, of summer [accord]G Gsus7 Em Eaug[/accord] But you, put your eyes, on mine Emsus Emdim7 Now I, I'm going to fry [accord]C5 B5[/accord] 'Cause I ran over the guy with a Hummer [accord]G Gsus7 Em Eaug[/accord] But you, put your eyes, eyes on the divine Emsus Emdim7 I, I wanna fly [accord]C5 B5[/accord] On the wings, of summer [accord]G Gsus7 Em Eaug[/accord] But you, you put your eyes, you put your eyes on mine Emsus Emdim7 When you think that it's all over [accord]C5 B5[/accord] They'll clip your wings and make you roll over G
G
e |---|---|-x-|---|---|
B |---|---|---|---|---|
G |---|---|---|---|---|
D |---|---|---|---|---|
A |---|-x-|---|---|---|
E |---|---|-x-|---|---|
Gsus7 To perfect your great fall [accord]Em Eaug[/accord] No matter what smile for them all Emsus Emdim7 For today we see never [accord]C5 B5[/accord] Tomorrow's menu reads forever G
G
e |---|---|-x-|---|---|
B |---|---|---|---|---|
G |---|---|---|---|---|
D |---|---|---|---|---|
A |---|-x-|---|---|---|
E |---|---|-x-|---|---|
Gsus7 For today we see never [accord]Em Em[/accord] Tomorrow's menu reads Enjoy (: Check out my youtube channel aswell please: www.youtube.com/philipgreenmusic thanks

Added On December 16th, 2013

SHARE

Comments

blog comments powered by Disqus

ADVERTISEMENT