Sevendust Tabs

Denial

4 versions

TAB

            Denial Tab by Sevendust


T1: Eric Libby, ejlib@bevcomm.net, Sevendust, Denial, 24/08/99

S1: I love this band and there is next to nothing for their tabs, so
here's one.
I just tabbed for Guitar 1, which is your best bet if you're playing by
yourself. If you have other guitarists to help, they can do the other
parts.
For Riff A, it helps to keep your pinky on the F# string while you do
the other notes.  , "Denial" by Sevendust
Tune Down 1 1/2 Steps
Tabs for Guitar 1 (dist.)

Intro

C#----------------------------------------------------------------
G#----------------------------------------------------------------
E ----------------------------------------------------------------
B -------4----------4-------7----5----4-----6------6/7------------
F#---7--------7---------6-----------------------------------------
B ----------------------------------------------------------------

Riff A

C#----------------------------------------------------------------
G#----------------------------------------------------------------
E ----------------------------------------------------------------
B -----------------------------------------------^-----^----------
F#---5-----------5----------5---------5----------^-----^----------
B ------3--0---2---3--0---2---3--0--2---3--0--2--2--0--2--0-------

C#----------------------------------------------------------------
G#-----------------------------------------------------^----------
E -----------------------------------------------------^----------
B -----------------------------------------------^-----2----------
F#---5-----------5----------5---------5----------^----------------
B ------3--0---2---3--0---2---3--0--2---3--0--2--2--0-----0-------

Verse (x3)

C#----------------------------------------------------------------
G#----------------------------------------------------------------
E --5-4-----5-4-----5-4-----5-4-----------------------------------
B --3-2-----3-2-----3-2-----3-2-----------^-----^-----------------
F#--3-2-----3-2-----3-2-----3-2-----------^-----^-----------------
B --3-2-----3-2-----3-2-----3-2-----0--0--2--0--2--0--------------

Chorus

C#----------------------------------------------------------------
G#----------------------------------------------------------------
E --4---4-4-4-4---4--4-4--4-4------4---4-4-4-4---4--4-4--4-4------
B --4---4-4-4-4---4--4-4--4-4------2---2-2-2-2---2--2-2--2-2------
F#--2---2-2-2-2---2--2-2--2-2------3---3-3-3-3---3--3-3--3-3------
B ----------------------------------------------------------------

C#----------------------------------------------------------------
G#----------------------------------------------------------------
E --4---4-4-4-4---4----4--4-4------4---4-4-4-4---4----4--4-4------
B --4---4-4-4-4---4----4--4-4------2---2-2-2-2---2----2--2-2------
F#--2---2-2-2-2---2----2--2-2------0---0-0-0-0---0----0--0-0------
B --2---2-2-2-2---2----2--2-2------0---0-0-0-0---0----0--0-0------

C#----------------------------------------------------------------
G#----------------------------------------------------------------
E --4---4-4-4-4---4--4-4--4-4------4---4-4-4-4---4--4-4--4-4------
B --4---4-4-4-4---4--4-4--4-4------2---2-2-2-2---2--2-2--2-2------
F#--2---2-2-2-2---2--2-2--2-2------3---3-3-3-3---3--3-3--3-3------
B ----------------------------------------------------------------

C#----------------------------------------------------------------
G#----------------------------------------------------------------
E --4---4-4-4-4---4----4----4------4---4-4-4-4---4----4--4-4------
B --4---4-4-4-4---4----4----4------4---4-4-4-4---4----4--4-4------
F#--2---2-2-2-2---2----2----2------X---X-X-X-X---X----X--X-X------
B --2---2-2-2-2---2----2----2------4---4-4-4-4---4----4--4-4------

Interlude
    P.M....................................|
C#----------------------------------------------------------------
G#----------------------------------------------------------------
E ----------------------------------------------------------------
B --------------------------------------------^-------^-----------
F#----0---2---0-----0---2---0-----0---2---0---^-------^-----------
B ----0---2---0-----0---2---0-----0---2---0---2---0---2-----------

    P.M....................................|
C#----------------------------------------------------------------
G#----------------------------------------------------^-----------
E ----------------------------------------------------^-----------
B --------------------------------------------^-------2-----------
F#----0---2---0-----0---2---0-----0---2---0---^-------------------
B ----0---2---0-----0---2---0-----0---2---0---2---0---------------

Outro--same as Chorus    

Added On December 12th, 2013

SHARE

Comments

blog comments powered by Disqus

VERSIONS

ADVERTISEMENT