Sevendust Tabs

Honesty

1 versions

TAB

            Honesty Tab by Sevendust


Band- Sevendust
Song- Honesty

Tuning: Drop B  (B F# B D# G# C#)


INTRO
|---------------------------------------------|
|---------------------------17----19--17------|
|---------18--19----18------------------------|
|-16------------------------------------------|
|---------------------------------------------|
|---------------------------------------------|



VERSE
|---------------------------------------------------------------------------------------|
|---------------------------------------------------------------5---7---5---------------|
|-------6--7----6-----------------------------------6--7----6---------------6-----------|
|-4-------------------------------------------4-----------------------------------------|
|---------------------------------------------------------------------------------------|
|---------------------------------------------------------------------------------------|
|
|
|---------------------------------------------------------------------------------------|
|-----------------------------------------------------------------------------12---10---|
|---------------------------------------------------------------------------------------|
|-9-------11---------12-----------------------9-------11--------12----------------------|
|-------------------------------12---10-------------------------------------------------|
|---------------------------------------------------------------------------------------|



|-----------------------------------------------------------------------5---------------|
|---------------------------------------------------------------5---7-------------------|
|-------6--7----6-----------------------------------6--7----6---------------------------|
|-4-------------------------------------------4-----------------------------------------|
|---------------------------------------------------------------------------------------|
|---------------------------------------------------------------------------------------|
|
|
|---------------------------------------------------------------------------------------|
|-----------------------------------------------------------------------------12---10---|
|---------------------------------------------------------------------------------------|
|-9-------11---------12-----------------------9-------11--------12----------------------|
|-------------------------------12---10-------------------------------------------------|
|---------------------------------------------------------------------------------------|



PRE CHORUS
|-------------------------------------------------------------------------|
|-----------6-6-6-6-7-7-7-----------------------6-6-6-6-7-7-7-------------|    

Added On December 12th, 2013

SHARE

Comments

blog comments powered by Disqus

ADVERTISEMENT