Shaka Ponk Tabs

Palabra Mi Amor

1 versions

TAB

            Title: Palabra Mi Amor
Artist: Shaka Ponk
Tabber: gwendal.mollo@orange.fr
Tempo = 110

Guitare



E |-------||-----||-------|-------|-------|-------||
B |-------||-----||-------|-------|-------|-------||
G |-------||o---o||-------|-------|-------|-------||
D |-------||o---o||-------|-------|-------|-------||
A |-------||-----||-------|-------|-------|-------||
E |-------||-----||-------|-------|-------|-------||


--------------------------------------------------|||
--------------------------------------------------|||
o------------------------------------------------o|||
o------------------10----------------------------o|||
-8-----11----8-----------8-----11-8-----8--8------|||
--------------------------------------------------|||


--------------------------------------------------||
--------------------------------------------------||
o------------------------------------------------o||
o------------------10M---------------------------o||
-8M----11M---8M----------8M----11M8M----8M-8M-----||
--------------------------------------------------||


----------------------------|----------------------------||
----------------------------|----------------------------||
----------------------------|----------------------------||
----------------------------|--8M-8M-8M-8M-8M-8M-8M-8M---||
--6M-6M-6M-6M-6M-6M-6M-6M---|----------------------------||
----------------------------|----------------------------||


---------------------------|---------------------------||----|----|
---------------------------|---------------------------||----|----|
o10-10-10-10-10-10-10-10---|--8--8--8--8--8--8--10-11-o||----|----|
o10-10-10-10-10-10-10-10---|--8--8--8--8--8--8--10-11-o||----|----|
-8--8--8--8--8--8--8--8----|--6--6--6--6--6--6--8--9---||----|----|
---------------------------|---------------------------||----|----|


----------------------------|----------------------------||
----------------------------|----------------------------||
--6--6--6--6--6--6--6--6----|--8--8--8--8--8--8--8--8----||
--6--6--6--6--6--6--6--6----|--8--8--8--8--8--8--8--8----||
--4--4--4--4--4--4--4--4----|--6--6--6--6--6--6--6--6----||
----------------------------|----------------------------||


--------------------------------------------------|||
--------------------------------------------------|||
o------------------------------------------------o|||
o------------------10----------------------------o|||
-8-----11----8-----------8-----11-8-----8--8------|||
--------------------------------------------------|||


--------------------------------------------------||
--------------------------------------------------||
o------------------------------------------------o||
o------------------10M---------------------------o||
-8M----11M---8M----------8M----11M8M----8M-8M-----||
--------------------------------------------------||


----------------------------|----------------------------||
----------------------------|----------------------------||
----------------------------|----------------------------||
----------------------------|--8M-8M-8M-8M-8M-8M-8M-8M---||
--6M-6M-6M-6M-6M-6M-6M-6M---|----------------------------||
----------------------------|----------------------------||


---------------------------|---------------------------||----|----|
---------------------------|---------------------------||----|----|
o10-10-10-10-10-10-10-10---|--8--8--8--8--8--8--10-11-o||----|----|
o10-10-10-10-10-10-10-10---|--8--8--8--8--8--8--10-11-o||----|----|
-8--8--8--8--8--8--8--8----|--6--6--6--6--6--6--8--9---||----|----|
---------------------------|---------------------------||----|----|


----------------------------|----------------------------||
----------------------------|----------------------------||
--6--6--6--6--6--6--6--6----|--8--8--8--8--8--8--8--8----||
--6--6--6--6--6--6--6--6----|--8--8--8--8--8--8--8--8----||
--4--4--4--4--4--4--4--4----|--6--6--6--6--6--6--6--6----||
----------------------------|----------------------------||


--------------------------------------------------||
--------------------------------------------------||
o------------------------------------------------o||
o------------------10----------------------------o||
-8-----11----8-----------8-----11-8-----8--8------||
--------------------------------------------------||


----------------------------------------------------|
----------------------------------------------------|
----------------------------------------------------|
--------------------10M-----------------------------|
--8M----11M---8M----------8M----11M8M----8M-8M------|
----------------------------------------------------|


----------------------------------------------------|
----------------------------------------------------|
----------------------------------------------------|
--------------------10M-----------------------------|
--8M----11M---8M----------8M----11M8M----8M-8M------|
----------------------------------------------------|


----------------------------------------------------|
----------------------------------------------------|
----------------------------------------------------|
--------------------10M-----------------------------|
--8M----11M---8M----------8M----11M8M----8M-8M------|
----------------------------------------------------|


----------------------------------------------------|
----------------------------------------------------|
----------------------------------------------------|
--------------------10M-----------------------------|
--8M----11M---8M----------8M----11M8M----8M-8M------|
----------------------------------------------------|


----------------------------------------------------|
----------------------------------------------------|
----------------------------------------------------|
----------------------------------------------------|
--6M----------6M----------6M----------6M------------|
----------------------------------------------------|


----------------------------------------------------|
----------------------------------------------------|
----------------------------------------------------|
--8M----------8M----------8M----------8M------------|
----------------------------------------------------|
----------------------------------------------------|


----------------------------------------------------|
----------------------------------------------------|
----------------------------------------------------|
--------------------10M-----------------------------|
--8M----11M---8M----------8M----11M8M----8M-8M------|
----------------------------------------------------|


----------------------------------------------------||
----------------------------------------------------||
----------------------------------------------------||
--------------------10M-----------------------------||
--8M----11M---8M----------8M----11M8M----8M-8M------||
----------------------------------------------------||


--------------------------------------------------||
--------------------------------------------------||
o------------------------------------------------o||
o------------------10M---------------------------o||
-8M----11M---8M----------8M----11M8M----8M-8M-----||
--------------------------------------------------||


----------------------------|----------------------------|
----------------------------|----------------------------|
----------------------------|----------------------------|
----------------------------|--8M-8M-8M-8M-8M-8M-8M-8M---|
--6M-6M-6M-6M-6M-6M-6M-6M---|----------------------------|
----------------------------|----------------------------|


----------------------------------------------------|
----------------------------------------------------|
----------------------------------------------------|
--------------------10M-----------------------------|
--8M----11M---8M----------8M----11M8M----8M-8M------|
----------------------------------------------------|


----------------------------------------------------|
----------------------------------------------------|
----------------------------------------------------|
--------------------10M-----------------------------|
--8M----11M---8M----------8M----11M8M----8M-8M------|
----------------------------------------------------|


----------------------------|
----------------------------|
----------------------------|
-----------------10M8M------|
--8--8--------8M-------11M--|
----------------------------|


----------------------------------------------------|----|----|----|----|----|
----------------------------------------------------|----|----|----|----|----|
----------------------------------------------------|----|----|----|----|----|
--------------------------------10M---8M------------|----|----|----|----|----|
--8M----11M8M-------------8M----------------11M-----|----|----|----|----|----|
----------------------------------------------------|----|----|----|----|----|


----|----|----------------------------------------------------|
----|----|----------------------------------------------------|
----|----|----------------------------------------------------|
----|----|----------------------------------------------------|
----|----|--8M----11M8M-------------8-----x-----8s----20------|
----|----|----------------------------------------------------|


----------------------------|----------------------------||
----------------------------|----------------------------||
--6M-6M-6M-6M-6M-6M-6M-6M---|----------------------------||
--6M-6M-6M-6M-6M-6M-6M-6M---|--8M-8M-8M-8M-8M-8--8--8----||
--4M-4M-4M-4M-4M-4M-4M-4M---|--8M-8M-8M-8M-8M-8--8--8----||
----------------------------|--6M-6M-6M-6M-6M-6--6--6----||


---------------------------|---------------------------||----|----||---|---|||
---------------------------|---------------------------||----|----||---|---|||
o10-10-10-10-10-10-10-10---|--8--8--8--8--8--8--10-11-o||----|----||o--|--o|||
o10-10-10-10-10-10-10-10---|--8--8--8--8--8--8--10-11-o||----|----||o--|--o|||
-8--8--8--8--8--8--8--8----|--6--6--6--6--6--6--8--9---||----|----||---|---|||
---------------------------|---------------------------||----|----||---|---|||





Guitar Solo



E |----------------------------------------------------|
B |--13-------11-------------11-------9----------------|
G |----------------------------------------------------|
D |----------------------------------------------------|
A |----------------------------------------------------|
E |----------------------------------------------------|


----------------------------------------------------|
----------------------------------------------------|
--12-------10-------------8-----10.---10------------|
----------------------------------------------------|
----------------------------------------------------|
----------------------------------------------------|


----------------------------------------------------|
--13-------11-------------11-------9----------------|
----------------------------------------------------|
----------------------------------------------------|
----------------------------------------------------|
----------------------------------------------------|


----------------------------------------------------|
----------------------------------------------------|
--12-------10-------------8-----10.---10------------|
----------------------------------------------------|
----------------------------------------------------|
----------------------------------------------------|


----------------------------------------------------|
----------------------------------------------------|
--6--------6--------8-----10------------------------|
----------------------------------------------------|
----------------------------------------------------|
----------------------------------------------------|


----------------------------------------------------|
----------------------------------------------------|
--10-------10-------13----12------------------------|
----------------------------------------------------|
----------------------------------------------------|
----------------------------------------------------|


----------------------------------------------------|
--13-------11-------------11-------9----------------|
----------------------------------------------------|
----------------------------------------------------|
----------------------------------------------------|
----------------------------------------------------|


----------------------------------------------------||
----------------------------------------------------||
--12-------10-------------8-----10.---10------------||
----------------------------------------------------||
----------------------------------------------------||
----------------------------------------------------||    

Added On December 16th, 2013

SHARE

Comments

blog comments powered by Disqus

ADVERTISEMENT