Sick Puppies Tabs

All The Same

8 versions

TAB

            All The Same Tab by Sick Puppies


Artist: Sick Puppies
Title:  All The Same

Tabbed by Jarrad Elson

Standard tuning (EADGBe)
6/8 timing


This is a freakin' awesome song, I have no idea why nobody's done a decent
tab of it yet so here's my attempt. You'll have to listen to the song to
get the timing right, which can be a little tricky but once you're used to
it it's pretty easy.


The song starts off with just straight chords:

     C     Em    Am    F

e||--0-----0-----0-----1----|
B||--1-----0-----1-----1----|
G||--0-----0-----2-----2----|
D||--2-----2-----2-----3----|
A||--3-----2-----0-----3----|
E||--------0-----------1----|


VERSE 1:

C                                    Em

I don't mind where you come from, as long as you come to me, and

Am                            F

I don't like illusions, I can't see them clearly

C                                   Em

I don't care, no I wouldn't dare to fix the twist in you

Am                                    F

You've shown me eventually what you'll do


                       I don't mind                       I don't care

e||-----0----0---0--0-|--------------|-----0----0---0--0-|--------------|
B||--1--1----1---1--1-|--------------|--1--1----1---1--1-|--------------|
G||--2--0----0---0--0-|--------------|--2--0----0---0--0-|--------------|
D||--3--2----2---2--2-|--------------|--3--2----2---2--2-|--------------|
A||--0--3----3---3--3-|--------------|--0--3----3---3--3-|--------------|
E||--1----------------|--------------|--1----------------|--------------|

               As long as you're here

e|-----0----0---0--0-|--------------|
B|--1--1----1---1--1-|--------------|
G|--2--0----0---0--0-|--------------|
D|--3--2----2---2--2-|--------------|
A|--0--3----3---3--3-|--------------|
E|--1----------------|--------------|

CHORUS 1:

                            Go ahead and tell me you'll   leave again

                            And I'll take you for who you are

e||--0----h3--3---3-|--0----h3--3---3-|--0----h3--3---3-|--0----h3--3---3-|
B||--0-h1-----1-----|--0-h1-----1-----|--0-h1-----1-----|--0-h1-----1-----|
G||--2--------2-----|--2--------2-----|--2--------2-----|--2--------2-----|
D||--2--------------|--2--------------|--2--------------|--2--------------|
A||--0--------------|--0--------------|--0--------------|--0--------------|
E||-----------------|-----------------|-----------------|-----------------|

                            You'll just come back         running

                            If you take me for            everything

e||--0----h3--3---3-|--0----h3--3---3-|--0----h3--3---3-|--0----h3--3---3-|
B||--0-h1-----1-----|--0-h1-----1-----|--0-h1-----1-----|--0-h1-----1-----|
G||--2--------2-----|--2--------2-----|--2--------2-----|--2--------2-----|
D||--3--------------|--3--------------|--3--------------|--3--------------|
A||--0--------------|--0--------------|--0--------------|--0--------------|
E||--1--------------|--1--------------|--1--------------|--1--------------|

                                         Holding your      scarred heart in

                                         Do it all         over

e||--0----0----0----|--0----0----0----|--1----1----1----|--0----0----0----|
B||--1----1----1----|--3----3----3----|--1----1----1----|--1----1----1----|
G||--0----0----0----|--0----0----0----|--0----0----0----|--0----0----0----|
D||--2----2----2----|--2----2----2----|--2----2----2----|--2----2----2----|
A||--3----3----3----|--3----3----3----|--3----3----3----|--3----3----3----|
E||-----------------|-----------------|-----------------|-----------------|

     hand                                                  It's all the same

     again

e||--3----3----3----|--5----5----5----|--7----7----7----|--7----7----7----|
B||--0----0----0----|--0----0----0----|--0----0----0----|--0----0----0----|
G||--0----0----0----|--0----0----0----|--0----0----0----|--0----0----0----|
D||--0----0----0----|--0--