Sick Puppies Tabs

All The Same

8 versions

TAB

            Intro

D|-------------|
A|-------------|
F|-------------|
C|-0-0-0-0-0-0-|
G|-0-0-0-0-0-0-|
C|-0-0-0-0-0-0-|

Verse

D|----------------------------------------------------|
A|----------------------------------------------------|
F|---------------------------4-4-4-4-4-4--------------|
C|-0-0-0-0-0-0--4-4-4-4-4-4--4-4-4-4-4-4--5-5-5-5-5-5-|
G|-0-0-0-0-0-0--4-4-4-4-4-4--2-2-2-2-2-2--5-5-5-5-5-5-| x2
C|-0-0-0-0-0-0--4-4-4-4-4-4---------------5-5-5-5-5-5-|

Pre Chorus

D|-----------|
A|-----------|
F|-7-7-7-7---|    

Added On December 16th, 2013

SHARE

Comments

blog comments powered by Disqus