Silverstein Tabs

Already Dead Intro

1 versions

TAB

            Already Dead Tab by Silverstein


Gt.1    Intro
E|--------------------------------------------------------------------------|
B|--------------------------------------------------------------------------|
G|--------------------------------------------------------------------------|
D|-------------6---6---7---7---4---4-----6-7---6-7-4p6p4---4----------------|
A|-4-6-7-4-6-7---7---7---6---6---6---6--4-----4-----------7---7-6-4-6-7~----|
E|--------------------------------------------------------------------------
Gt.2   Intro
E|----------------------------------------------------------|
B|----------------------------------------------------------|
G|---6---6-8---6---6------6---6-8---6-----------------------|
D|-9---9-----9---9------9---9-----9---7p9p7-6-4-------------|
A|----------------------------------------------------------|
E|----------------------------------------------------------|

Guitar 2 might be wrong,,, but i dont know    

Added On December 12th, 2013

SHARE

Comments

blog comments powered by Disqus

ADVERTISEMENT