Silverstein Tabs

Always And Never Intro

1 versions

TAB

            Always And Never Tab by Silverstein


e|------------------------------------------------------------------------|
B|---------------------------------|--------------------------------------|
G|11-11-11-/-9-/-11-11-11-/-9-/-11-|--11-11-11-/-9-/-11-11-11-/-14-/12----|
D|x---x--x-/-x-/--x--x--x-/-x-/--x-|--x---x--x-/-x-/--x--x--x-/--x-/-x----|
A|9---9--9-/-7-/--9--9--9-/-7-/--9-|--9---9--9-/-7-/--9--9--9-/-12-/-10---|
D|---------------------------------|--------------------------------------|

e|------------------------------------------------------------------------|
B|-----------------------------------|------------------------------------|
G|14-14-14-/-12-/-14-14-14-/-12-/-14-|-14-14-14-/-12-/-14-14-14-/-12-/-11-|
D|-x--x--x-/--x-/--x--x--x-/--x-/--x-|--x--x--x-/--x-/--x--x--x-/--x-/-x--|
A|12-12-12-/-10-/-12-12-12-/-10-/-12-|-12-12-12-/-10-/-12-12-12-/-10-/-9--|
D|-----------------------------------|------------------------------------|

e|------------------------------------------------------------------------|
B|---------------------------------|--------------------------------------|
G|11-11-11-/-9-/-11-11-11-/-9-/-11-|--11-11-11-/-9-/-11-11-11-/-14-/12----|
D|x---x--x-/-x-/--x--x--x-/-x-/--x-|--x---x--x-/-x-/--x--x--x-/--x-/-x----|
A|9---9--9-/-7-/--9--9--9-/-7-/--9-|--9---9--9-/-7-/--9--9--9-/-12-/-10---|
D|---------------------------------|--------------------------------------|

e|-------------------------------------------------------------------------|
B|-----------------------------------|---------------|--------|------------|
G|14-14-14-/-12-/-14-14-14-/-12-/-14-|-14-14-14-/-12-|-11-/-9-|------------|
D|-x--x--x-/--x-/--x--x--x-/--x-/--x-|--x--x--x-/--x-|--x-/-x-|-4-(play a--|
A|12-12-12-/-10-/-12-12-12-/-10-/-12-|-12-12-12-/-10-|--9-/-7-|-4----------|bunch of
D|-----------------------------------|---------------|--------|-4-times)---|    

Added On December 12th, 2013

SHARE

Comments

blog comments powered by Disqus

ADVERTISEMENT