Silverstein Tabs

Good Intentions

1 versions

TAB

            I Play this tab in Drop C#, but you can play it at standar too, (:

Intro
------------------------------------|
------------------------------------|
-6666---------6666----9-------------|
-6666---------6666----9-------------|
-4444---------4444----7-------------|
------------------------------------|


Verse
                                             P.M.   ....
------------------------------------------------------------|
------------------------------------------------------------|
-99446644----99446644----99446644----99446644444444-4444----|
-99446644----99446644----99446644----99446644444444-4444----|  x2
-77224422----77224422----77224422----77224422222222-2222----|
------------------------------------------------------------|


Final
------------------------------------|
------------------------------------|
-6666---------6666----9-------99----|
-6666---------6666----9-------99----|
-4444---------4444----7-------77----|
------------------------------------|    

Added On December 16th, 2013

SHARE

Comments

blog comments powered by Disqus

ADVERTISEMENT