Silverstein Tabs

My Heroine

8 versions

TAB

            My Heroine Tab by Silverstein


Artist: Silverstein
Song: My Heroine
Cd: Discovering the Waterfront
Tuning: Standard
Low to High
(EADGBe)
=========================================================================
Alright I have officailly updated this so it is 100%
everything sounds just like the song I'm positive
I'm sorry it took so long but thanks.
=========================================================================
some people have been rating this 1* so i
only got to say please, please be fair
=========================================================================
I would like to thank Daniel Stapp(ver 2)
and HopeUnknownMB (ver1)
=========================================================================
Ive updated the intro bridge and pre-chorus
=========================================================================

GUITAR 1

|----------------------------------------------------|x4
|----------------------------------------------------|
|--------0-------------0-------------0-----0----0----|
|---9---------0---0---------0----0-------0----0-----0|
|-----10---10-------10---10--------9---9----9-----9--|
|-0-------------8-------------10---------------------|

|----------------------------------------|
|----------------------------------------|
|----------------------------------------|
|--------0------0-------------0------0---|
|---10-----10-----10-----9------9------9-|
|-8----8------8-------10---10-----10-----|
                                                    x2
-----------------------------------------------|
-----------------------------------------------|
---------------------------------12------12----|
----------0-------12----------------0-------0--|
----10------10-------10----10---------10-------|
-12----12------12-------12----12---------------|

pre-chorus-distorted
|-----------------------------------------------------|
|-----------------------------------------------------|
|---------------5--5-5--5-5-5-------------------------|
|-2--2-2--2-2-2-5--5-5--5-5-5-4--4-4--4-4-4-5-4-7-4-5-|
|-2--2-2--2-2-2-3--3-3--3-3-3-5--5-5--5-5-5-5-5-5-5-5-|
|-0--0-0--0-0-0---------------------------------------|

|-------------------------------------------------------|
|-------------------------------------------------------|
|---------------5--5-5--5-5-5---------------------------|
|-2--2-2--2-2-2-5--5-5--5-5-5-4--4-4--4-4-4-5-4-5-5-4---|
|-2--2-2--2-2-2-3--3-3--3-3-3-5--5-5--5-5-5-5-5-5-5-5---|
|-0--0-0--0-0-0---------------------------------------0-|

chorus
|-----------------------------------------------------------------|
|-----------------------------------------------------------------|
|-9-9-9-9-9-9-9-9-11-11-11-11-11-11-11-11-12-12-12-12-12-12-12-12-|
|-x-x-x-x-x-x-x-x--x--x--x--x--x--x--x--x--x--x--x--x--x--x--x--x-|
|-7-7-7-7-7-7-7-7--9--9--9--9--9--9--9--9-10-10-10-10-10-10-10-10-|
|-----------------------------------------------------------------|

|-------------------------|
|-------------------------|
|-------------------------|
|-12--12-10-10-9-9-7------|
|-------------------------|
|-------------------------|

|-----------------------------------------------------------------|
|-----------------------------------------------------------------|
|-9-9-9-9-9-9-9-9-11-11-11-11-11-11-11-11-12-12-12-12-12-12-12-12-|
|-x-x-x-x-x-x-x-x--x--x--x--x--x--x--x--x--x--x--x--x--x--x--x--x-|
|-7-7-7-7-7-7-7-7--9--9--9--9--9--9--9--9-10-10-10-10-10-10-10-10-|
|-----------------------------------------------------------------|

|-------------------------|
|-------------------------|
|-12-12-12-12-12-12-12-12-|
|--x--x--x--x--x--x--x--x-|
|-10-10-10-10-10-10-10-10-|
|-------------------------|

|-----------------------------------------------------------------|
|-----------------------------------------------------------------|
|-9-9-9-9-9-9-9-9-11-11-11-11-11-11-11-11-12-12-12-12-12-12-12-12-|
|-x-x-x-x-x-x-x-x--x--x--x--x--x--x--x--x--x--x--x--x--x--x--x--x-|
|-7-7-7-7-7-7-7-7--9--9--9--9--9--9--9--9-10-10-10-10-10-10-10-10-|
|-----------------------------------------------------------------|

|-------------------------|
|-------------------------|
|-12-12-12-12-12-12-12-12-|
|--x--x--x--x--x--x--x--x-|
|-10-10-10-10-10-10-10-10-|
|-------------------------|

|----------------------------------------------------------------------|
|----------------------------------------------------------------------|
|-9-9-9-9-9-9-9-9-9-9-9-9-9-9-9-9-11-7-7-7-7-7-7-7-7-7-7-7-7-7-7-7-7-7-|
|-x-x-x-x-x-x-x-x-x-x-x-x-x-x-x-x--x-7-7-7-7-7-7-7-7-7-7-7-7-7-7-7-7-7-|
|-7-7-7-7-7-7-7-7-7-7-7-7-7-7-7-7--9-5-5-5-5-5-5-5-5-5-5-5-5-5-5-5-5-5-|
|------------------------------------.-.-.-.-.-.-.-.-------------------|

pre-chorus-distorted
|----------------------------------------------------|
|----------------------------------------------------|
|---------------5--5-5--5-5-5-7--7-7--7-7-7----------|
|-2--2-2--2-2-2-5--5-5--5-5-5-7--7-7--7-7-7-5-4-7-4-5|
|-2--2-2--2-2-2-3--3-3--3-3-3-5--5-5--5-5-5-5-4-7-4-5|
|-0--0-0--0-0-0-----------------------------3-2-5-2-3|

|-------------------------------------------------------|
|-------------------------------------------------------|
|---------------5--5-5--5-5-5-7--7-7--7-7-7-------------|
|-2--2-2--2-2-2-5--5-5--5-5-5-7--7-7--7-7-7-5-5-4-5-4---|
|-2--2-2--2-2-2-3--3-3--3-3-3-5--5-5--5-5-5-5-5-4-5-4---|
|-0--0-0--0-0-0-----------------------------3-3-2-3-2p0-|

chorus
|-----------------------------------------------------------------|
|-----------------------------------------------------------------|
|-9-9-9-9-9-9-9-9-11-11-11-11-11-11-11-11-12-12-12-12-12-12-12-12-|
|-x-x-x-x-x-x-x-x--x--x--x--x--x--x--x--x--x--x--x--x--x--x--x--x-|
|-7-7-7-7-7-7-7-7--9--9--9--9--9--9--9--9-10-10-10-10-10-10-10-10-|
|-----------------------------------------------------------------|

|-------------------------|
|-------------------------|
|-------------------------|
|-12--12-10-10-9-9-7------|
|-------------------------|
|-------------------------|

|-----------------------------------------------------------------|
|-----------------------------------------------------------------|
|-9-9-9-9-9-9-9-9-11-11-11-11-11-11-11-11-12-12-12-12-12-12-12-12-|
|-x-x-x-x-x-x-x-x--x--x--x--x--x--x--x--x--x--x--x--x--x--x--x--x-|
|-7-7-7-7-7-7-7-7--9--9--9--9--9--9--9--9-10-10-10-10-10-10-10-10-|
|-----------------------------------------------------------------|

|-------------------------|
|-------------------------|
|-12-12-12-12-12-12-12-12-|
|--x--x--x--x--x--x--x--x-|
|-10-10-10-10-10-10-10-10-|
|-------------------------|

|-----------------------------------------------------------------|
|-----------------------------------------------------------------|
|-9-9-9-9-9-9-9-9-11-11-11-11-11-11-11-11-12-12-12-12-12-12-12-12-|
|-x-x-x-x-x-x-x-x--x--x--x--x--x--x--x--x--x--x--x--x--x--x--x--x-|
|-7-7-7-7-7-7-7-7--9--9--9--9--9--9--9--9-10-10-10-10-10-10-10-10-|
|-----------------------------------------------------------------|

|-------------------------|
|-------------------------|
|-12-12-12-12-12-12-12-12-|
|--x--x--x--x--x--x--x--x-|
|-10-10-10-10-10-10-10-10-|
|-------------------------|

|----------------------------------------------------------------------|
|----------------------------------------------------------------------|
|-9-9-9-9-9-9-9-9-9-9-9-9-9-9-9-9-11-7-7-7-7-7-7-7-7-7-7-7-7-7-7-7-7-7-|
|-x-x-x-x-x-x-x-x-x-x-x-x-x-x-x-x--x-7-7-7-7-7-7-7-7-7-7-7-7-7-7-7-7-7-|
|-7-7-7-7-7-7-7-7-7-7-7-7-7-7-7-7--9-5-5-5-5-5-5-5-5-5-5-5-5-5-5-5-5-5-|
|------------------------------------.-.-.-.-.-.-.-.-------------------|

bridge
|-------------------------------------------------|
|-------------------------------------------------|
|-12-12-12-12-12-12-12-12-11-11-11-11-11-11-11-11-|
|--x--x--x--x--x--x--x--x--x--x--x--x--x--x--x--x-|
|-10-10-10-10-10-10-10-10--9--9--9--9--9--9--9--9-|
|-------------------------------------------------|

|-------------------------------------------------|
|-------------------------------------------------|
|-16-16-16-17-14-14-14-16-12-12-12-12-12-12-12-14-|
|--x--x--x--x--x--x--x--x--x--x--x--x--x--x--x--x-|
|-14-14-14-15-12-12-12-14-10-10-10-10-10-10-10-12-|
|-------------------------------------------------|

|-------------------------------------------------|
|-------------------------------------------------|
|-12-12-12-12-12-12-12-12-11-11-11-11-11-11-11-11-|
|--x--x--x--x--x--x--x--x--x--x--x--x--x--x--x--x-|
|-10-10-10-10-10-10-10-10--9--9--9--9--9--9--9--9-|
|-------------------------------------------------|

|-------------|
|-------------|
|-9----7----5-|
|-9----7----5-|
|-7----5----3-|
|-------------|

breakdown-clean
|----------------------------------------------------|x4
|----------------------------------------------------|
|--------0-------------0-------------0-----0----0----|
|---9---------0---0---------0----0-------0----0-----0|
|-----10---10-------10---10--------9---9----9-----9--|
|-0-------------8-------------10---------------------|

|----------------------------------------|
|----------------------------------------|
|----------------------------------------|
|--------0------0-------------0------0---|
|---10-----10-----10-----9------9------9-|
|-8----8------8-------10---10-----10-----|
                                                     x2
-----------------------------------------------|
-----------------------------------------------|
---------------------------------12------12----|
----------0-------12----------------0-------0--|
----10------10-------10----10---------10-------|
-12----12------12-------12----12---------------|

|---------------------------------|
|---------------------------------|
|-----------------7-7-7-7-7-7-7-7-|
|-2-2-2-2-2-2-2-2-7-7-7-7-7-7-7-7-|
|-2-2-2-2-2-2-2-2-5-5-5-5-5-5-5-5-|
|-0-0-0-0-0-0-0-0-----------------|
  . . . . . . . . . . . . . . . .

chorus
|-----------------------------------------------------------------|
|-----------------------------------------------------------------|
|-9-9-9-9-9-9-9-9-11-11-11-11-11-11-11-11-12-12-12-12-12-12-12-12-|
|-x-x-x-x-x-x-x-x--x--x--x--x--x--x--x--x--x--x--x--x--x--x--x--x-|
|-7-7-7-7-7-7-7-7--9--9--9--9--9--9--9--9-10-10-10-10-10-10-10-10-|
|-----------------------------------------------------------------|

|-------------------------|
|-------------------------|
|-------------------------|
|-12--12-10-10-9-9-7------|
|-------------------------|
|-------------------------|

|-----------------------------------------------------------------|
|-----------------------------------------------------------------|
|-9-9-9-9-9-9-9-9-11-11-11-11-11-11-11-11-12-12-12-12-12-12-12-12-|
|-x-x-x-x-x-x-x-x--x--x--x--x--x--x--x--x--x--x--x--x--x--x--x--x-|
|-7-7-7-7-7-7-7-7--9--9--9--9--9--9--9--9-10-10-10-10-10-10-10-10-|
|-----------------------------------------------------------------|

|-------------------------|
|-------------------------|
|-12-12-12-12-12-12-12-12-|
|--x--x--x--x--x--x--x--x-|
|-10-10-10-10-10-10-10-10-|
|-------------------------|

|-----------------------------------------------------------------|
|-----------------------------------------------------------------|
|-9-9-9-9-9-9-9-9-11-11-11-11-11-11-11-11-12-12-12-12-12-12-12-12-|
|-x-x-x-x-x-x-x-x--x--x--x--x--x--x--x--x--x--x--x--x--x--x--x--x-|
|-7-7-7-7-7-7-7-7--9--9--9--9--9--9--9--9-10-10-10-10-10-10-10-10-|
|-----------------------------------------------------------------|

|-------------------------|
|-------------------------|
|-12-12-12-12-12-12-12-12-|
|--x--x--x--x--x--x--x--x-|
|-10-10-10-10-10-10-10-10-|
|-------------------------|

|----------------------------------------------------------------------|
|----------------------------------------------------------------------|
|-9-9-9-9-9-9-9-9-9-9-9-9-9-9-9-9-11-7-7-7-7-7-7-7-7-7-7-7-7-7-7-7-7-7-|
|-x-x-x-x-x-x-x-x-x-x-x-x-x-x-x-x--x-7-7-7-7-7-7-7-7-7-7-7-7-7-7-7-7-7-|
|-7-7-7-7-7-7-7-7-7-7-7-7-7-7-7-7--9-5-5-5-5-5-5-5-5-5-5-5-5-5-5-5-5-5-|
|------------------------------------.-.-.-.-.-.-.-.-------------------|

outro
|----------------------------------------------------|
|----------------------------------------------------|
|---------------5--5-5--5-5-5-7--7-7--7-7-7----------|
|-2--2-2--2-2-2-5--5-5--5-5-5-7--7-7--7-7-7-5-4-7-4-5|
|-2--2-2--2-2-2-3--3-3--3-3-3-5--5-5--5-5-5-5-4-7-4-5|
|-0--0-0--0-0-0-----------------------------3-2-5-2-3|

===========================================================================

GUITAR 2

intro-slightly distroted-listen for
timing
|-------------|x2
|-------------|
|-9----5----7-|
|-9----5----7-|
|-7----3----5-|
|-------------|

|------------------|
|------------------|
|-5----7----9----7-|
|-5----7----9----7-|
|-3----5----7----5-|
|------------------|

|----------------------------------------|
|----------------------------------------|
|-5----7-----------------7-7-7-7-7-7-7-7-|
|-5----7-2-2-2-2-2-2-2-2-7-7-7-7-7-7-7-7-|
|-3----5-2-2-2-2-2-2-2-2-5-5-5-5-5-5-5-5-|
|--------0-0-0-0-0-0-0-0-----------------|
         . . . . . . . . . . . . . . . .

pre-chorus-distorted
|----------------------------------------------------|
|----------------------------------------------------|
|---------------5--5-5--5-5-5-7--7-7--7-7-7----------|
|-2--2-2--2-2-2-5--5-5--5-5-5-7--7-7--7-7-7-5-4-7-4-5|
|-2--2-2--2-2-2-3--3-3--3-3-3-5--5-5--5-5-5-5-4-7-4-5|
|-0--0-0--0-0-0-----------------------------3-2-5-2-3|

|-------------------------------------------------------|
|-------------------------------------------------------|
|---------------5--5-5--5-5-5-7--7-7--7-7-7-------------|
|-2--2-2--2-2-2-5--5-5--5-5-5-7--7-7--7-7-7-5-5-4-5-4---|
|-2--2-2--2-2-2-3--3-3--3-3-3-5--5-5--5-5-5-5-5-4-5-4---|
|-0--0-0--0-0-0-----------------------------3-3-2-3-2p0-|

chorus
|---------------------------------|x3
|---------------------------------|
|-5-5-5-5-7-7-7-7-9-9-9-9-9-9-9-9-|
|-5-5-5-5-7-7-7-7-9-9-9-9-9-9-9-9-|
|-3-3-3-3-5-5-5-5-7-7-7-7-7-7-7-7-|
|---------------------------------|

|---------