Silverstein Tabs

Sand Will Turn To Glass

3 versions

TAB

            Artist :   	Silverstein
Song :   	The Sand Will turn To Glass
Album:    	Arrivals & Departures

Tuning:     Drop C#
Tabber:     Ronnie(romuluszero@gmail.com)

--------------------------------------------------|
--------------------------------------------------|
Hi . First Tab Here.
This Is The Way I play It so keep in mind : it can be wrong
but it sounds good to me.

listen to the song to know ho much strumming etc...
enjoy
---------------------------------------------|
---------------------------------------------|


[Intro]Clean

D#|---------------------------------------------------------------------------------------------|
A#|---------------------------------------------------------------------------------------------|
F#|--------------2--0-----------------------------------------2---0----------- 0----------------|
C#|--3------0-----------3--------------------------3-------0----------2--3----------------------|
G#|-----3----------------------------------------------3----------------------------------------|
C#|---------------------------------------------------------------------------------------------|

D#|---------------------------------------------------------------------------------------------|
A#|---------------------------------------------------------------------------------------------|
F#|-------------2--0----------------------------------2---0---------0---------------------------|
C#|--3------0---------3--------------------3------0-----------2--3--------3(let ring)-----------|
G#|-----3-------------------------------------3-------------------------------------------------|
C#|---------------------------------------------------------------------------------------------|

[Verse 1]Distortion

D#|---------------------------------------------------------------------------------------------|
A#|---------------------------------------------------------------------------------------------|
F#|---------------------------------3-3-3-3-3-3-3-3----5-5-5-5-5-5-5-5--------------------------|
C#|---0-0-0---------0-0-0-----------3-3-3-3-3-3-3-3----5-5-5-5-5-5-5-5--------------------------|
G#|---0-0-0---------0-0-0-----------1-1-1-1-1-1-1-1----3-3-3-3-3-3-3-3--------------------------|
C#|---0-0-0---------0-0-0-----------------------------------------------------------------------|

D#|---------------------------------------------------------------------------------------------|
A#|---------------------------------------------------------------------------------------------|
F#|---------------------------------3-3-3-3-3-3-3-3----2-2-2-2-2-2-2-2--------------------------|
C#|---0-0-0---------0-0-0-----------3-3-3-3-3-3-3-3----2-2-2-2-2-2-2-2--------------------------|
G#|---0-0-0---------0-0-0-----------1-1-1-1-1-1-1-1----0-0-0-0-0-0-0-0--------------------------|
C#|---0-0-0---------0-0-0-----------------------------------------------------------------------|

[Chorus]

D#|---------------------------------------------------------------------------------------------|
A#|---------------------------------------------------------------------------------------------|
F#|-7-7-7-7------------3-3-3-3--5-5-5-5--7-7-7-7------------------------------------------------|
C#|-7-7-7-7---3-3-3-3--3-3-3-3--5-5-5-5--7-7-7-7--3-3-3-3--5-5-5-5-5-5-5-5----------------------|
G#|-5-5-5-5---3-3-3-3--1-1-1-1--3-3-3-3--5-5-5-5--3-3-3-3--5-5-5-5-5-5-5-5----------------------|
C#|-----------3-3-3-3-----------------------------3-3-3-3--5-5-5-5-5-5-5-5----------------------|

D#|---------------------------------------------------------------------------------------------|
A#|---------------------------------------------------------------------------------------------|
F#|-7-7-7-7------------3-3-3-3--5-5-5-5--7-7-7-7-----------2-2-2-2-2-2-2-2-2-2-2-2-2-2-2-2------|
C#|-7-7-7-7---3-3-3-3--3-3-3-3--5-5-5-5--7-7-7-7--3-3-3-3--2-2-2-2-2-2-2-2-2-2-2-2-2-2-2-2------|
G#|-5-5-5-5---3-3-3-3--1-1-1-1--3-3-3-3--5-5-5-5--3-3-3-3--0-0-0-0-0-0-0-0-0-0-0-0-0-0-0-0------|
C#|-----------3-3-3-3-----------------------------3-3-3-3---------------------------------------|

[Verse 2]
D#|---------------------------------------------------------------------------------------------|
A#|---------------------------------------------------------------------------------------------|
F#|---------------------------------3-3-3-3-3-3-3-3----5-5-5-5-5-5-5-5--------------------------|
C#|---0-0-0---------0-0-0-----------3-3-3-3-3-3-3-3----5-5-5-5-5-5-5-5--------------------------|
G#|---0-0-0---------0-0-0-----------1-1-1-1-1-1-1-1----3-3-3-3-3-3-3-3--------------------------|
C#|---0-0-0---------0-0-0-----------------------------------------------------------------------|

D#|---------------------------------------------------------------------------------------------|
A#|---------------------------------------------------------------------------------------------|
F#|---------------------------------3-3-3-3-3-3-3-3----2-2-2-2-2-2-2-2--------------------------|
C#|---0-0-0---------0-0-0-----------3-3-3-3-3-3-3-3----2-2-2-2-2-2-2-2--------------------------|
G#|---0-0-0---------0-0-0-----------1-1-1-1-1-1-1-1----0-0-0-0-0-0-0-0--------------------------|
C#|---0-0-0---------0-0-0-----------------------------------------------------------------------|


[Chorus]

D#|---------------------------------------------------------------------------------------------|
A#|---------------------------------------------------------------------------------------------|
F#|-7-7-7-7------------3-3-3-3--5-5-5-5--7-7-7-7------------------------------------------------|
C#|-7-7-7-7---3-3-3-3--3-3-3-3--5-5-5-5--7-7-7-7--3-3-3-3--5-5-5-5-5-5-5-5----------------------|
G#|-5-5-5-5---3-3-3-3--1-1-1-1--3-3-3-3--5-5-5-5--3-3-3-3--5-5-5-5-5-5-5-5----------------------|
C#|-----------3-3-3-3-----------------------------3-3-3-3--5-5-5-5-5-5-5-5----------------------|

D#|---------------------------------------------------------------------------------------------|
A#|---------------------------------------------------------------------------------------------|
F#|-7-7-7-7------------3-3-3-3--5-5-5-5--7-7-7-7-----------2-2-2-2-2-2-2-2-2-2-2-2-2-2-2-2------|
C#|-7-7-7-7---3-3-3-3--3-3-3-3--5-5-5-5--7-7-7-7--3-3-3-3--2-2-2-2-2-2-2-2-2-2-2-2-2-2-2-2------|
G#|-5-5-5-5---3-3-3-3--1-1-1-1--3-3-3-3--5-5-5-5--3-3-3-3--0-0-0-0-0-0-0-0-0-0-0-0-0-0-0-0------|
C#|-----------3-3-3-3-----------------------------3-3-3-3---------------------------------------|

[Solo Part]
Guitar 1
D#|---------------------------------------------------------------------------------------------|
A#|---------------------------------------------------------------------------------------------|
F#|--7-7-7-7--------------3-3-3-3---5-5-5-5---7-7-7-7-------------------------------------------|
C#|--7-7-7-7---3-3-3-3----3-3-3-3---5-5-5-5---7-7-7-7---3-3-3-3---5-5-5-5-5-5-5-5---------------|
G#|--5-5-5-5---3-3-3-3----1-1-1-1---3-3-3-3---5-5-5-5---3-3-3-3---5-5-5-5-5-5-5-5---------------|
C#|------------3-3-3-3----------------------------------3-3-3-3---5-5-5-5-5-5-5-5---------------|

D#|---------------------------------------------------------------------------------------------|
A#|---------------------------------------------------------------------------------------------|
F#|-7-7-7-7-----------3-3-3-3--5-5-5-5--7-7-7-7-----------2-2-2-2-2-2-2-2-2-2-2-2-2-2-2-2-------|
C#|-7-7-7-7--3-3-3-3--3-3-3-3--5-5-5-5--7-7-7-7--3-3-3-3--2-2-2-2-2-2-2-2-2-2-2-2-2-2-2-2-------|
G#|-5-5-5-5--3-3-3-3--1-1-1-1--3-3-3-3--5-5-5-5--3-3-3-3--0-0-0-0-0-0-0-0-0-0-0-0-0-0-0-0-------|
C#|----------3-3-3-3-----------------------------3-3-3-3----------------------------------------|

Guitar 2 (solo)
D#|---------------------------------------------------------------------------------------------|
A#|----------10--------13--------10----------------10------15--13--10---------------------------|
F#|-----12--------12--------12-----------------12------12---------------12----------------------|
C#|---------------------------------------------------------------------------------------------|
G#|---------------------------------------------------------------------------------------------|
C#|---------------------------------------------------------------------------------------------|

D#|---------------------------------------------------------------------------------------------|
A#|-----------10--------13---------10-----------------------------------------------------------|
F#|------12-------12--------12----------------12--10--12--10--9--9(make it scream)--------------|
C#|---------------------------------------------------------------------------------------------|
G#|---------------------------------------------------------------------------------------------|
C#|---------------------------------------------------------------------------------------------|

D#|---------------------------------------------------------------------------------------------|
A#|---------10--------13---------10----------------10------15--13----10-------------------------|
F#|----12--------12--------12-----------------12--------12---------12---------------------------|
C#|---------------------------------------------------------------------------------------------|
G#|---------------------------------------------------------------------------------------------|
C#|---------------------------------------------------------------------------------------------|

D#|---------------------------------------------------------------------------------------------|
A#|---------10--------13------10----------------------------------------------------------------|
F#|-----12-------12-------12----------12(Bend---------------------------------------------------|
C#|---------------------------------------------------------------------------------------------|
G#|---------------------------------------------------------------------------------------------|
C#|---------------------------------------------------------------------------------------------|

[Bridge] listen to song for  x times of strumming...

D#|---------------------------------------------------------------------------------------------|
A#|---------------------------------------------------------------------------------------------|
F#|-3-3-3-3--5-5-5-5--------------------3-3-3-3--2-2-2-2-2-2-2-2--------------------------------|
C#|-3-3-3-3--5-5-5-5--0-0-0-0--3-3-3-3--3-3-3-3--2-2-2-2-2-2-2-2--------------------------------|
G#|-1-1-1-1--3-3-3-3--0-0-0-0--3-3-3-3--1-1-1-1--0-0-0-0-0-0-0-0--------------------------------|
C#|-------------------0-0-0-0--3-3-3-3----------------------------------------------------------|


[Verse 3]
D#|---------------------------------------------------------------------------------------------|
A#|---------------------------------------------------------------------------------------------|
F#|---------------------------------3-3-3-3-3-3-3-3----5-5-5-5-5-5-5-5--------------------------|
C#|---0-0-0---------0-0-0-----------3-3-3-3-3-3-3-3----5-5-5-5-5-5-5-5--------------------------|
G#|---0-0-0---------0-0-0-----------1-1-1-1-1-1-1-1----3-3-3-3-3-3-3-3--------------------------|
C#|---0-0-0---------0-0-0-----------------------------------------------------------------------|

D#|---------------------------------------------------------------------------------------------|
A#|---------------------------------------------------------------------------------------------|
F#|---------------------------------3-3-3-3-3-3-3-3----2-2-2-2-2-2-2-2--------------------------|
C#|---0-0-0---------0-0-0-----------3-3-3-3-3-3-3-3----2-2-2-2-2-2-2-2--------------------------|
G#|---0-0-0---------0-0-0-----------1-1-1-1-1-1-1-1----0-0-0-0-0-0-0-0--------------------------|
C#|---0-0-0---------0-0-0-----------------------------------------------------------------------|

[Chorus]

D#|---------------------------------------------------------------------------------------------|
A#|---------------------------------------------------------------------------------------------|
F#|-7-7-7-7------------3-3-3-3--5-5-5-5--7-7-7-7------------------------------------------------|
C#|-7-7-7-7---3-3-3-3--3-3-3-3--5-5-5-5--7-7-7-7--3-3-3-3--5-5-5-5-5-5-5-5----------------------|
G#|-5-5-5-5---3-3-3-3--1-1-1-1--3-3-3-3--5-5-5-5--3-3-3-3--5-5-5-5-5-5-5-5----------------------|
C#|-----------3-3-3-3-----------------------------3-3-3-3--5-5-5-5-5-5-5-5----------------------|

D#|---------------------------------------------------------------------------------------------|
A#|---------------------------------------------------------------------------------------------|
F#|-7-7-7-7------------3-3-3-3--5-5-5-5--7-7-7-7-----------2-2-2-2-2-2-2-2-2-2-2-2-2-2-2-2------|
C#|-7-7-7-7---3-3-3-3--3-3-3-3--5-5-5-5--7-7-7-7--3-3-3-3--2-2-2-2-2-2-2-2-2-2-2-2-2-2-2-2------|
G#|-5-5-5-5---3-3-3-3--1-1-1-1--3-3-3-3--5-5-5-5--3-3-3-3--0-0-0-0-0-0-0-0-0-0-0-0-0-0-0-0------|
C#|-----------3-3-3-3-----------------------------3-3-3-3---------------------------------------|

[End]    

Added On December 16th, 2013

SHARE

Comments

blog comments powered by Disqus

VERSIONS

ADVERTISEMENT