Silverstein Tabs

Your Sword Versus My Dagger

8 versions

TAB

            Your Sword Versus My Dagger Tab by Silverstein


Your sword versus my dagger
silverstein

tabbed by: Rey ian cabanganan

intro 2 times.
E|----------------------------|
B|----------------------------|
G|----------------------------|
D|--------2-3-2-------2-3-2---|
A|--0h2h3-------0h2h3-------3-|
D|----------------------------|


E|---------------------|
B|---------------------|
G|---------------------|
D|-888888---333-2------|
A|-888888---333-2------|
D|-888888---333-2------|
verse
E|--------------------------|
B|--------------------------|
G|--------------------------|
D|--0000----888---333--1010-|
A|--0000----888---333--1010-|
D|--0000----888---333--1010-|


E|-------------------------------------------------------|
B|-------------------------------------------------------|
G|-------------------------------------------------------|
D|--0000----888---333--222-tapos eto sunod>>-888--101010-|      
A|--0000----888---333--222-------------------888--101010-|
D|--0000----888---333--222-------------------888--101010-|

E|-------------|---------------|A
B|-------------|---------------|
G|-------------|---------------|
D|------2-3-2--|-888--101010---|
A|-0h2h3-----3-|-888--101010---|
D|-------------|-888--101010---|

E|---------------------------------------------|
B|---------------------------------------------|
G|---------------------------------------------|
D|--888--101010---00000--33333--88888--101010--|
A|--888--101010---00000--33333--88888--101010--|
D|--888--101010---00000--33333--88888--101010--|

bridge
E|--------------------------------------------------------------------------|
B|--------------------------------------------------------------------------|
G|--------------------------------------------------------------------------|
D|---0000-00-0--0000-00-0-0---0000-00-0-0000-00-0-0------888888--10101010---|
A|---0000-00-0--0000-00-0-0---0000-00-0-0000-00-0-0------888888--10101010---|
D|---0000-00-0--0000-00-0-0---0000-00-0-0000-00-0-0------888888--10101010---|

E|-----------------------------------------------|
B|-----------------------------------------------|
G|-----------------------------------------------|
D|---00000000---3333333--8888888--333333-222222--|
A|---00000000---3333333--8888888--333333-222222--|
D|---00000000---3333333--8888888--333333-222222--|
tapos balik uli sa A.

salamat po. ganda tong song na to...pakiintindi nlang at pakinggan ng mabuti yung kanta,
khoital reaction! hi sa mahal kong si ingrid!
questions? email me...reyianc@yahoo.com    

Added On December 12th, 2013

SHARE

Comments

blog comments powered by Disqus