Silversun Pickups Tabs

Lazy Eye

4 versions

TAB

            Lazy Eye Tab by Silversun Pickups


-------------------------------------------------------------------------------
			     LAZY EYE - Silversun Pickups
-------------------------------------------------------------------------------
Tabbed by: Ryan Atkinson
Email: rratky11@yahoo.ca

Tuning: Standard

intro
e|---------------------------------------------------------------------------|
B|---------------------------------------------------------------------------|
G|---------------------------------------------------------------------------|
D|---------------------------------------------------------------------------|
A|---11-11-11-11-11-11-11-11-9--9--9--9h11--11--11b12r11--9--9---------------|
E|---0--0--0--0--0--0--0--0--0--0--0--0-----0---0---------0--0---------------|

variation of this riff throughout song:
e|---------------------------------------------------------------------------|
B|---------------------------------------------------------------------------|
G|---------------------------------------------------------------------------|
D|---------------------------------------------------------------------------|
A|---9/7/9--11--11--11-------------------------------------------------------|
E|---0------0---0---0--------------------------------------------------------|

Bridge
e|---------------------------------------------------------------------------|
B|---------------------------------------------------------------------------|
G|---------------------------------------------------------------------------|
D|--11-----9-----------------------------------------------------------------|
A|--11-----9-----------------------------------------------------------------|
E|--9------7-----------------------------------------------------------------|

main riff
e|---------------------------------------------------------------------------|
B|---------------------------------------------------------------------------|
G|---------------------------------------------------------------------------|
d|---------------------------9/11/9------------------------------------------|
a|--11-11-11-11-11-11-11-11---------11-11-11--9-9----------------------------|
E|--0--0--0--0--0--0--0--0---0------0--0--0---0-0----------------------------|

solo
e|---------------------------------------------------------------------------|
B|---------------------------------------------------------------------------|
G|---------------------------------------------------------------------------|
D|-14-14-12-----------------------9---------9--------------------------------|
A|----------14--12h14-12-11--9h11---11-9h11---11-9---------------------------|
E|--------------------------------------------------12-11-11-7--7-7-7--------|

e|---------------------------------------------------------------------------|
B|---------------------------------------------------------------------------|
G|---------------------------------------------------------------------------|
g|--9-9-9-9-9-9---11-11-11---13-13-13-13rb-----9-9-9-9-9-9--11---9/13--13--13|
d|--x-x-x-x-x-x---x--x--x----x--x--x--x--------x-x-x-x-x-x--x----x/x---x---x-|
a|--7-7-7-7-7-7---9--9--9----11-11-11-11rb-----7-7-7-7-7-7--9----7/11--11--11|
E|---------------------------------------------------------------------------|

"If we were so untrue.."
e|---------------------------------------------------------------------------|
B|---------------------------------------------------------------------------|
G|--13---11---13rb-----13--11--13--9-----------------------------------------|
D|--x----x----x--------x---x---x---x-----------------------------------------|
A|--11---9----11rb-----11--9---11--7-----------------------------------------|
E|---------------------------------------------------------------------------|

e|---------------------------------------------------------------------------|
B|---------------------------------------------------------------------------|
G|--13---11---13rb-----13--11--9-/-11----------------------------------------|
D|--x----x----x--------x---x---x-/-x-----------------------------------------|
A|--11---9----11rb-----11--9---7-/-13----------------------------------------|
E|---------------------------------------------------------------------------|

phaser-solo
e|---------------------------------------------------------------------------|
B|---------------------------------------------------------------------------|
G|---------------------------------------------------------------------------|
D|----------------------------9---------9h11p9-------------------------------|
A|--14-12-12-11-11h12-11-9h11---11-9h11--------11-9--------------------------|
E|--------------------------------------------------11-11h12-11-7------------|

e|---------------------------------------------------------------------------|
B|---------------------------------------------------------------------------|
G|---------------------------------------------------------------------------|
D|---------------------------------------------------------------------------|
A|--11-11-11-11-11-11-11-11--9-9-9-9h11--11-11rb---11-9/7/9-11-11--11--------|
E|---------------------------------------------------------------------------|


"with such shine"
e|---------------------------------------------------------------------------|
B|---------------------------------------------------------------------------|
G|-------9--9----------------------------------------------------------------|
D|-------x--x----------------------------------------------------------------|
A|-------7--7----------------------------------------------------------------|
E|-0--0----------------------------------------------------------------------|

| /  slide up
| \  slide down
| h  hammer-on
| p  pull-off
| ~  vibrato
| +  harmonic
| x  Mute note
===============================================================================    

Added On December 12th, 2013

SHARE

Comments

blog comments powered by Disqus

VERSIONS

ADVERTISEMENT